Song name
# A B C D E F G H I J K L M N O P Q R S T U V W X Y Z

Saves The Day - Woe tab

Tabber: Hector Rios
Tuning: 1/2 step down; Eb
Song: Woe
Album: Under The Boards

One guitar sustains:

eb|--------|
Bb|14^v^v~~|
Gb|--------|
Db|--------|
Ab|--------|
Eb|--------|

While the other does this in the back:

|----------------|
|14/20~~--14/20~~|
|----------------|
|----------------|
|----------------|
|----------------|

Then both guitars start pounding on:

eb|-----------|
Bb|-----------|
Gb|-----------|
Db|-----------|
Ab|4~-4~-4~-4~|
Eb|3~-3~-3~-3~|

Then speed up the picking, and play the chord 16 times
Followed by:

|-------------------|
|-------------------|
|-------------------|
|4444---------------|
|2222-4444-4444-2222|
|-----2222-3332-0000|

Then stop with:

|2~--|---2~|
|0~--|---0~|
|0~--|---4~|
|0~--|---0~|
|1~--|---4~|
|3~--|---3~|

While Dave plays this over it (notes are drowning in reverb/delay; distorted bass is 
heard in this)

|-------------------|
|-------------------|
|11--11--11--11---11|
|--------------12~--|
|--14--14--14-------|
|-------------------|

Repeat all, and then it breaks down to this

|-----------------------|
|-----------------------|
|-----------------------|
|-----------------------|
|-----------------------|
|5^5v55-2222-2h3332-0000|
Tap to rate this tab
# A B C D E F G H I J K L M N O P Q R S T U V W X Y Z