Song name
# A B C D E F G H I J K L M N O P Q R S T U V W X Y Z

Saves The Day - Daybreak Acoustic tab

-------------------------------------------------------------------------------
			     DAYBREAK (ACOUSTIC) - Saves the Day
-------------------------------------------------------------------------------
Tabbed by: Erik Steinmeyer
Email: Scrutinizer@gmail.com

Tuning: Half-Step Down (Capo: 2nd fret)

e|---------------------------------------------------------------------------|
B|-----------------------------------------------------------------0---------|
G|---------4-4-----2-0-------4-4-----2-0-------4-4-------2-0-----3-----2-0---|
D|---------------------------------------------------------------------------| x5
A|---------------------------------------------------------------------------|
E|-----3-3-------3-------3-3-------3-------0-0-------0-------0-0-------------|

e|---------------------------------------------------------------------------|
B|---------0-0-----0-0-------0-0-----0-0---------0-------0-0-----0-0---0-0---|
G|---------4-4-----2-0-------4-4-----2-0-------3---------2-0-----4-4---2-0---|
D|---------------------------------------------------------------------------| x2
A|---------------------------------------------------------------------------|
E|-----3-3-------3-------3-3-------3-------0-0-------0-------0-0-------------|

e|---------------------------------------------------------------------------|
B|---------0-----------------------------------------------------------------|
G|--------0------------------------------------------------------------------|
D|-------0-------------------------------------------------------------------|
A|------x--------------------------------------------------------------------|
E|-----3---------------------------------------------------------------------|

| /  slide up
| \  slide down
| h  hammer-on
| p  pull-off
| ~  vibrato
| +  harmonic
| x  Mute note
===============================================================================
Tap to rate this tab
 
# A B C D E F G H I J K L M N O P Q R S T U V W X Y Z