Song name
# A B C D E F G H I J K L M N O P Q R S T U V W X Y Z

Saves The Day - The Last Lie I Told tab

Help us improve GuitareTab! Take a short survey!
----------------------------------------------------------------------------
		 The Last Lie I Told - Saves The Day
----------------------------------------------------------------------------
Tabbed by: adslam3
I noticed that UG doesn't have this tab, but it's one of my favorites
by saves the day and so I thought you all should know how to play it too.
Enjoy.
Tuning: Standard
This tab is for Guitar 1 only.
Intro
e|----------------------------------|---------------------------------------|
B|--5-5-5-5-4-4-4-4/4-4-4-4-5-5-4-4-|---------------------------------------|
G|--4-4-4-4-4-4-4-4/4-4-4-4-4-4-4-4-|---------------------------------------|
D|--2-2-2-2-2-2-2-2/4-4-4-4-6-6-6-6-|2-2--Then repeat first part------------|
A|----------------------------------|2-2------------------------------------|
E|----------------------------------|0-0------------------------------------|

Verse
Play this part 4 times
e|--------------------------------------------------------------------------|
B|--------------------------------------------------------------------------|
G|------------------------------4-4-4-4-------------------------------------|
D|--2-2-2-2--6-6--4-4--6-6-6-6--4-4-4-4-------------------------------------|
A|--2-2-2-2--6-6--4-4--6-6-6-6--2-2-2-2-------------------------------------|
E|--0-0-0-0--4-4--2-2--4-4-4-4----------------------------------------------|

Break (0:26-0:43)         This leads back to verse
e|----------------------|---------------------------------------------------|
B|----------------------|---------------------------------------------------|
G|----------------------|----------4-4-4-4----------------------------------|
D|--2~-----2-2~---------|--6-6-6-6-4-4-4-4----------------------------------|
A|--2~-----2-2~---------|--6-6-6-6-2-2-2-2----------------------------------|
E|--0~-----0-0~---------|--4-4-4-4------------------------------------------|
Now go back to verse

Bridge (this part is played twice)
e|--------------------------------------------------------------------------|
B|--------------------------------------------------------------------------|
G|--9---------9-9-9-9---------9-9-9-9---------9-9-9-9-----------------------|
D|--9---------9-9-9-9---------9-9-9-9---------9-9-9-9-----------------------|
A|--7-7-7-7-7-7-7-7-7-7-7-7-7-7-7-7-6-6-6-6-6-6-6-6-6-6-6-6-6---------------|
E|--------------------------------------------------------------------------|
PM   ........         .......         ........        .......

e|--------------------------------------------------------------------------|
B|--------------------------------------------------------------------------|
G|-9-9-9-9---------9-9-9-9---------9-9-9------------------------------------|
D|-9-9-9-9---------9-9-9-9---------9-9-9-6---------6-6-6-9---------9-9------|
A|-6-6-6-x---------x-x-x-x---------x-x-x-6---------6-6-6-9---------9-9------|
E|-------9-9-9-9-9-9-9-9-9-9-9-9-9-9-9-9-4-4-4-4-4-4-4-4-7-7-7-7-7-7-7------|
PM         .......         .......         .......         .......

Ending
*The first 3 chords are strummed 16 time, last two are for 8 strums.
e|--------------------------------------------------------------------------|
B|--5----4------------------------------------------------------------------|
G|--4----4----6-------4-----------------------------------------------------|
D|--2----2----6----6--4-----------------------------------------------------|
A|--2----2----4----6--2-----------------------------------------------------|
E|-----------------4--------------------------------------------------------|
   x16  x16  x16  x8  x8

And that's it. I tried to get the strumming as close as possible.
I know there is a second guitar in the song, I'll try to figure out it out
and add it in as I get it.
Have fun.
| /  slide up
| \  slide down
| h  hammer-on
| p  pull-off
| ~  vibrato
| +  harmonic
| x  Mute note
============================================================================
Related for The Last Lie I Told tab