Song name
# A B C D E F G H I J K L M N O P Q R S T U V W X Y Z

Saves The Day - Sonic Reducer tab

-------------------------------------------------------------------------------
			     sonic reducer - saves the day
----------------------------------------------------------------------------

Tabbed by:turn_the_page93
Email:rockandrollr93@aol.com

Tuning: standard.        its a fairly simple song to play. i believe this is a cover of
same song by the dead boys.
  personally, i like this version better.
 im not finished as i am doing this in like a few minutes, ill add the rest on when possible.
well this is my first tab so dont be too harsh please?        gracias muchachos y muchachas.
    intro -let ring-
e|---------------------------------------------------------------------------|
B|---------------------------------------------------------------------------|
G|----8--6-------------------------------------------------------------------|
D|----8--6-------------------------------------------------------------------|
A|----6--4-------------------------------------------------------------------|
E|---------------------------------------------------------------------------|

e|-------------------------------------------------------------------------------|
B|-------------------------------------------------------------------------------|
G|-------------------------------------------------------------------------------|
D|-------------------------------------------------------------------------------|
A|----4-4-4-4-4-4-4-4----------------------------------------------0-4-4-4-4-----|
E|--------------------5-4-4-4-4-4-4-0-5-5-5-5-5-5-5-0-2-2-2-2-2-2-2--------------|


e|-----------------------------------------------------------------------------|
B|-----------------------------------------------------------------------------|
G|---------------------------------------------------------6---6---6-----------|
D|---------------------------------------------------------6---6---6--6---6----|
A|-4-4-4-4-----------------------------------------------0-4---4---4--6---6----|
E|---------5-4-4-4-4-4-4-0-5-5-5-5-5-5-5-0-2-2-2-2-2-2-2--------------4---4----|


e|---------------------------------------|
B|---------------------------------------|
G|---------------------------------------|
D|--6--7---7---7--4---4---4----(repeat)--|
A|--6--7---7---7--4---4---4--------------|
E|--4--5---5---5--2---2---2--------------|
Tap to rate this tab
 
# A B C D E F G H I J K L M N O P Q R S T U V W X Y Z