Song name
# A B C D E F G H I J K L M N O P Q R S T U V W X Y Z

Saves The Day - Rise tab

Saves The Day

In Reverie

Rise


Tabbed by Jonathan Takish

All strings tuned down one half step

Ok, the tab that was up for this song was written for one guitar and the chord 
fingerings were nearly impossible. 
I tried to simplify it a bit, but it still uses some weird chords and has a weird rythym


Part one

Lets call it...                  OFF  I've had E...                NOUGH of the..        Gaa-aim...

eb|------------|                 eb|------------|                  Eb|------------|        eb|----|
Bb|-5---55--5--|                 Bb|-2---22--2--|                  Bb|-3---33--3--|        Bb|-23-|
Gb|-4---44--4--|                 Gb|-4---44--4--|                  Gb|-2---22--2--|        Gb|-22-|
Db|-4---44--4--|                 Db|-3---33--3--|                  Db|-4---44--4--|        Db|-22-|
Ab|-x---xx--x--|                 Ab|-4---44--4--|                  Ab|-2---22--2--|        Ab|-00-|
Eb|-3---33--3--|                 Eb|------------|                  Eb|------------|        Eb|----|




..S  If you could                 SEE into...                       ME   All my..          Vei-in..

eb|------------|                 eb|------------|                  Eb|------------|        eb|----|
Bb|-5---55--5--|                 Bb|-2---22--2--|                  Bb|-3---33--3--|        Bb|-23-|
Gb|-4---44--4--|                 Gb|-4---44--4--|                  Gb|-2---22--2--|        Gb|-22-|
Db|-4---44--4--|                 Db|-3---33--3--|                  Db|-4---44--4--|        Db|-22-|
Ab|-x---xx--x--|                 Ab|-4---44--4--|                  Ab|-2---22--2--|        Ab|-00-|
Eb|-3---33--3--|                 Eb|------------|                  Eb|------------|        Eb|----|




S.. are tangled                   UP tied in...                     KNOTS

eb|------------|                 eb|------------|                  Eb|------------|           
Bb|-5---55--5--|                 Bb|-2---22--2--|                  Bb|-3---33--3--|              
Gb|-4---44--4--|                 Gb|-4---44--4--|                  Gb|-2---22--2--|           
Db|-4---44--4--|                 Db|-3---33--3--|                  Db|-4---44--4--|           
Ab|-x---xx--x--|                 Ab|-4---44--4--|                  Ab|-2---22--2--|           
Eb|-3---33--3--|                 Eb|------------|                  Eb|------------|         


Part Two  is way easier to figure out so I won't bother with the proper rythym.

Guitar 

eb|-0-0-0-0--4-4-4-4------------------------------|
Bb|-0-0-0-0--4-4-4-4---2-2-2-2------------4-------|
Gb|-1-1-1-1--4-4-4-4---3-3-3-3------------4-------|
Db|-2-2-2-2--4-4-4-4---2-2-2-2----6---4h6----6----| X2
Ab|-2-2-2-2--2-2-2-2---4-4-4-4----4---------------|   
Eb|-0-0-0-0------------2-2-2-2--------------------|


eb|-0-0-0-0------------------------|
Bb|-0-0-0-0---4-4-4-4---2-2-2-2----|
Gb|-1-1-1-1---3-3-3-3---4-4-4-4----|  X 1 
Db|-2-2-2-2---4-4-4-4---3-3-3-3----|
Ab|-2-2-2-2---2-2-2-2---4-4-4-4----|
Eb|-0-0-0-0------------------------|


Back into part one


Pre Chorus

    That'll.........be............the day
Eb|----------------------------------------------|
Bb|-3-3-3-3-3-3-3--2-2-2-2-2-2-2---2-2-2-2-2-2-2-|
Gb|-4-4-4-4-4-4-4--3-3-3-3-3-3-3---3-3-3-3-3-3-3-|
Db|-3-3-3-3-3-3-3--4-4-4-4-4-4-4---4-4-4-4-4-4-4-|
Ab|-4-4-4-4-4-4-4--4-4-4-4-4-4-4---4-4-4-4-4-4-4-|
Eb|----------------------------------------------|


Chorus

eb|-0-0-0-0-----------0-0-0-0-------0-0-0-0-------------|
Bb|-0-0-0-0--4-4-4-4--0-0-0-0--4-4--0-0-0-0--4-4-4-4--4-|
Gb|-1-1-1-1--4-4-4-4--1-1-1-1--4-4--1-1-1-1--4-4-4-4--3-|
Db|-2-2-2-2--4-4-4-4--2-2-2-2--4-4--2-2-2-2--4-4-4-4--4-|
Ab|-2-2-2-2--2-2-2-2--2-2-2-2--2-2--2-2-2-2--2-2-2-2--2-|
Eb|-0-0-0-0-----------0-0-0-0-------0-0-0-0-------------|

eb|-0-0-0-0-----------0-0-0-0-------0-0-0-0-----------------|
Bb|-0-0-0-0--4-4-4-4--0-0-0-0--4-4--0-0-0-0--4-4-4-4--4--3--|
Gb|-1-1-1-1--4-4-4-4--1-1-1-1--4-4--1-1-1-1--4-4-4-4--3--4--|
Db|-2-2-2-2--4-4-4-4--2-2-2-2--4-4--2-2-2-2--4-4-4-4--4--3--|
Ab|-2-2-2-2--2-2-2-2--2-2-2-2--2-2--2-2-2-2--2-2-2-2--2--4--|
EB|-0-0-0-0-----------0-0-0-0-------0-0-0-0-----------------|




Bridge                                          (tremolo pick)

Eb|-10-10-9-----12-12-10-12-12-10-12/14-14-12-10---------------|
Bb|-------12-------------------------------------(12-10-8--7)--|
Gb|------------------------------------------------------------|
Db|------------------------------------------------------------|
Ab|------------------------------------------------------------|
EB|------------------------------------------------------------|
Tap to rate this tab
 
# A B C D E F G H I J K L M N O P Q R S T U V W X Y Z