Song name
# A B C D E F G H I J K L M N O P Q R S T U V W X Y Z

Saves The Day - Let It All Go Acoustic tab

Note: If you're familiar with John Mayer, it's much easier to play some of these chords 
the "thumb method" (hitting the bass note fret with your thumb), namely the ones at the 
"Begging", "Sideways", "Know", and "Time".

Verse 1:
   You say I won't forget the day you left me, I won't forget you left
e|-----------0-----------------------------------------------------|
B|-----------1-----------------------------------------------------|
G|-----------0-----------------------------------------------------|
D|-----------2-----------------------------------------------------|
A|-----------3-----------------------------------------------------|
E|-----------3-----------------------------------------------------|

    Begging please don't leave.   I wanna know
e|------x----------------------5-----------x-|
B|------x----------------------5-----------x-|
G|------4----------------------5-----------4-|
D|------3----------------------7-----------3-|
A|------x----------------------7-----------x-|
E|------4----------------------5-----------4-|

      What in the world has happened to you?
e|----------------x--------------------------0------|
B|----------------3-------------------------1-------|
G|----------------4-------------------------2-------|
D|----------------3-------------------------2-------|
A|----------------x--------------------------x------|
E|----------------3-------------------------2-------|

   It's time to learn to let it all go
e|---------------0-------0----------------0-|
B|---------------1-------1----------------1-|
G|---------------2-------0----------------0-|
D|---------------2-------0----------------2-|
A|---------------x-------2----------------3-|
E|---------------1-------3----------------3-|

Verse 2:
   So your forsaken cast is signed and alone. Those haunted voices in your
e|-----------0-----------------------------------------------------|
B|-----------1-----------------------------------------------------|
G|-----------0-----------------------------------------------------|
D|-----------2-----------------------------------------------------|
A|-----------3-----------------------------------------------------|
E|-----------3-----------------------------------------------------|

       Head are all ghosts.  So long ago
e|------x------------------5----------x--------------|
B|------x------------------5----------x--------------|
G|------4------------------5----------4--------------|
D|------3------------------7----------3--------------|
A|------x------------------7----------x--------------|
E|------4------------------5----------4--------------|

   Their sideways eyes cut through what you know.
e|-----------------x---------------------------0-----|
B|-----------------3---------------------------1-----|
G|-----------------4---------------------------2-----|
D|-----------------3---------------------------2-----|
A|-----------------x---------------------------x-----|
E|-----------------3---------------------------2-----|

   It's time to learn to let it all go
e|---------------0-------0--------------0--|
B|---------------1-------1--------------1--|
G|---------------2-------0--------------0--|
D|---------------2-------0--------------2--|
A|---------------x-------2--------------3--|
E|---------------1-------3--------------3--|


Chorus:
        You know that I Love you and I can't stand living without you
e|---1-----------------------0----------1------------------------|
B|---1-----------------------1----------0------------------------|
G|---1-----------------------0----------0------------------------|
D|---3-----------------------2----------3------------------------|
A|---3-----------------------3----------2------------------------|
E|---1-----------------------3----------3------------------------|

      But I don't know what now I can do, Oh no no
e|---1----------------------0----------1-----|
B|---1----------------------1----------0-----|
G|---1----------------------0----------0-----|
D|---3----------------------2----------3-----|
A|---3----------------------3----------2-----|
E|---1----------------------3----------3-----|

      You gotta do something cuz you can't just keep it inside you
e|---1-----------------0--------------1-----|
B|---1-----------------1--------------0-----|
G|---1-----------------0--------------0-----|
D|---3-----------------2--------------3-----|
A|---3-----------------3--------------2-----|
E|---1-----------------3--------------3-----|

       It's killing me and killing you
e|---1---------------0--------------1-----|
B|---1---------------1--------------0-----|
G|---1---------------0--------------0-----|
D|---3---------------2--------------3-----|
A|---3---------------3--------------2-----|
E|---1---------------3--------------3-----|

(Solo + verse guitar)

e|-----------0-----------------------------------------------------|
B|-----------1-----------------------------------------------------|
G|-----------0-----------------------------------------------------|
D|-----------2-----------------------------------------------------|
A|-----------3-----------------------------------------------------|
E|-----------3-----------------------------------------------------|

                                Please save yourself,
e|------x-------------------5------------------x-|
B|------x-------------------5------------------x-|
G|------4-------------------5------------------4-|
D|------3-------------------7------------------3-|
A|------x-------------------7------------------x-|
E|------4-------------------5------------------4-|

   I'd like to help but you won't let me through
e|--------------x-------------------------0-----|
B|--------------3-------------------------1-----|
G|--------------4-------------------------2-----|
D|--------------3-------------------------2-----|
A|--------------x-------------------------x-----|
E|--------------3-------------------------2-----|

   It's time to learn to let it all go
e|---------------0-------0-|
B|---------------1-------1-|
G|---------------2-------0-|
D|---------------2-------0-|
A|---------------x-------2-|
E|---------------1-------3-|

(Ahhh) You know that I love you and I can't stand living without you
But I don't know what now I can do, Oh no no
You gotta do something cuz you can't just keep it inside you
It's killing me and killing you

e|---------1-----|
B|---------0-----|
G|---------0-----|
D|---------3-----|
A|---------2-----|
E|---------3-----|


        You know that I Love you and I can't stand living without you
e|---1-----------------------0----------1------------------------|
B|---1-----------------------1----------0------------------------|
G|---1-----------------------0----------0------------------------|
D|---3-----------------------2----------3------------------------|
A|---3-----------------------3----------2------------------------|
E|---1-----------------------3----------3------------------------|

      But I don't know what now I can do, Oh no no
e|---1----------------------0----------1-----|
B|---1----------------------1----------0-----|
G|---1----------------------0----------0-----|
D|---3----------------------2----------3-----|
A|---3----------------------3----------2-----|
E|---1----------------------3----------3-----|

      You gotta do something cuz you can't just keep it inside you
e|---1-----------------0--------------1-----|
B|---1-----------------1--------------0-----|
G|---1-----------------0--------------0-----|
D|---3-----------------2--------------3-----|
A|---3-----------------3--------------2-----|
E|---1-----------------3--------------3-----|
Tap to rate this tab
 
# A B C D E F G H I J K L M N O P Q R S T U V W X Y Z