Song name
# A B C D E F G H I J K L M N O P Q R S T U V W X Y Z

Saves The Day - The Way His Collar Falls tab

e|------------------------------------------------|
B|--------3----------3----------------------------|
G|---------------0-----0--------4-----------------|
D|-----5----5---2---2--------5-----5----4---4h5p4-| x6
A|--3---3----------------------------5---5--------|
E|------------------------3---3-------------------|
            +          +          +




                      OR
 
e|------------------------------------------------|
B|-------------------3----------------------------|
G|--------7------0-----0--------4-----------------|
D|-----5----5---2---2--------5-----5----4---4h5p4-| x6
A|--3---3----------------------------5---5--------|
E|------------------------3---3-------------------|
            +          +          +
Tap to rate this tab
 
# A B C D E F G H I J K L M N O P Q R S T U V W X Y Z