Saves The Day - Sonic Reducer tab

Saves The Day - Sonic Reducer

Tuning: Standard


Intro:

------------------------------------------------|
------------------------------------------------|
------------------------------------------------|
---8--6-----------------------------------------|
---6--4-----------------------------------------|
------------------------------------------------|


Verse:


--------------------------------------------------------------------|
--------------------------------------------------------------------|
--------------------------------------------------------------------|
--------------------------------------------------------------------|
--4-4-4-4-4-4-------------------------------------------------------|            x2
-------------------4-4-4-4-4-4----5-5-5-5-5-5----2-2-2-2-2-2--------|



-----------------------------------------------------|
-----------------------------------------------------|
-----------------------------------------------------|
--6-6-6-6--------------------------------------------|
--4-4-4-4-----6-6-6-6------7-7-7-7-----4-4-4-4-------|
-----------------4-4-4-4------5-5-5-5-----2-2-2-2----|



--------------------------------------------------------------------|
--------------------------------------------------------------------|
--------------------------------------------------------------------|
--------------------------------------------------------------------|
--4-4-4-4-4-4-------------------------------------------------------|            x3
-------------------4-4-4-4-4-4----5-5-5-5-5-5----2-2-2-2-2-2--------|


Chorus:

------------------------------------------------------------------------|
------------------------------------------------------------------------|
------------------------------------------------------------------------|
--2----2-2--------------------------------------------------------------|
--2----2-2------4---4-4------7---7-7------9---9-9-----------------------|
--0----0-0------2---2-2------5---5-5------7---7-7-----------------------|


---------------------------------------------------------------------|
---------------------------------------------------------------------|
---------------------------------------------------------------------|
---------------------------------------------------------------------|
9-9-9---11----9-9-9---11--------9---7-----9--------------------------|x2
7-7-7---9------7-7-7---9---------7---5-----7-------------------------|

Verse:


-------------------------------------------------------------------------|
-------------------------------------------------------------------------|
-------------------------------------------------------------------------|
-------------------------------------------------------------------------|
--4-4-4-4-4-4-----------------------------------------4-4-4-4------------|
-------------------4-4-4-4-4-4----5-5-5-5-5-5----2-2-2-2-----------------|



--------------------------------------------------------------------|
--------------------------------------------------------------------|
--------------------------------------------------------------------|
--------------------------------------------------------------------|
--4-4-4-4-4-4-------------------------------------------------------|            x3
-------------------4-4-4-4-4-4----5-5-5-5-5-5----2-2-2-2-2-2--------|


Chorus:

------------------------------------------------------------------------|
------------------------------------------------------------------------|
------------------------------------------------------------------------|
--2----2-2--------------------------------------------------------------|
--2----2-2------4---4-4------7---7-7------9---9-9-----------------------|
--0----0-0------2---2-2------5---5-5------7---7-7-----------------------|


---------------------------------------------------------------------|
---------------------------------------------------------------------|
---------------------------------------------------------------------|
---------------------------------------------------------------------|
9-9-9---11----9-9-9---11--------9---7-----9--------------------------|x2
7-7-7---9------7-7-7---9---------7---5-----7-------------------------|

Solo:

------------------------------------------|
------------------------------------------|
9-9-9-9-9-9-9-9---6-6-6--4----------------|
----------------------------b6--/2--------|   x2
------------------------------------------|
------------------------------------------|


----------------------------------------|
----------------------------------------|
6-6-6-6-6-6-6-6----/2-------------------|
----------------------------------------|
----------------------------------------|
----------------------------------------|

----------------------------------------5-5-5-5---7-7-7-7----9-9-9-9---------------|
-4-4-4-4---6-6-6-6---8-8-8-8-------------------------------------------------------|
-----------------------------------------------------------------------------------|
-----------------------------------------------------------------------------------|
-----------------------------------------------------------------------------------|
-----------------------------------------------------------------------------------|


-9-9-9-9-9-9---11-11-11-11-11-11--12-12-12-12-12-12---14-14-14-14-14----|
-9-9-9-9-9-9---11-11-11-11-11-11--12-12-12-12-12-12---14-14-14-14-14----|
------------------------------------------------------------------------|
------------------------------------------------------------------------|
------------------------------------------------------------------------|
------------------------------------------------------------------------|

---------9--------9-----------9-7-------7-------b7-b7-b7-------------------------------|
--b12-----b12----b12-------------9-----9----------------------7------------------------|
-------------------------------------------------------------------9-----9--6~~~-------|
---------------------------------------------------------------------------------------|
---------------------------------------------------------------------------------------|
---------------------------------------------------------------------------------------|


Verse:


--------------------------------------------------------------------|
--------------------------------------------------------------------|
--------------------------------------------------------------------|
--------------------------------------------------------------------|
--4-4-4-4-4-4-------------------------------------------------------|            x5
-------------------4-4-4-4-4-4----5-5-5-5-5-5----2-2-2-2-2-2--------|



Chorus:

------------------------------------------------------------------------|
------------------------------------------------------------------------|
------------------------------------------------------------------------|
--2----2-2--------------------------------------------------------------|
--2----2-2------4---4-4------7---7-7------9---9-9-----------------------|
--0----0-0------2---2-2------5---5-5------7---7-7-----------------------|


---------------------------------------------------------------------|
---------------------------------------------------------------------|
---------------------------------------------------------------------|
---------------------------------------------------------------------|
9-9-9---11----9-9-9---11--------9---7-----9--------------------------|      x4
7-7-7---9------7-7-7---9---------7---5-----7-------------------------|
Tap to rate this tab
 
# A B C D E F G H I J K L M N O P Q R S T U V W X Y Z