Song name
# A B C D E F G H I J K L M N O P Q R S T U V W X Y Z

Saves The Day - The Art Of Misplacing Firearms tab

Very fast and fun song. It's kind of all over the place, so I have it down for you 
guys in order of how the song goes. Enjoy


Intro:

E|------------|
B|----5-4~----|
G|------------|
D|------------|
A|-4~---------|
E|------------| x2


Figure 1:

E|------------| \
B|----5-4~----|  \
G|------------|   \
D|------------|    \
A|-4~---------|     \
E|------------| x4   \
                      x4
E|---------|         /
B|----4----|        /
G|---4-4---|       /
D|---------|      /
A|-2-------|     /
E|---------| x4 /


Figure 2:

E|----------------------|
B|----------------------|
G|-999999~~-------------|
D|-999999~~---------4~--|
A|-777777~~---------2~--|
E|----------------------|

E|-------------|
B|-------------|
G|---------9---|
D|-----777-9---|
A|-9~--777-7---|
E|-7~--555-----|


Figure 3:

E|------------------|
B|------------------|
G|------------999---|
D|-99999--777-999---|
A|-99999--777-777---|
E|-77777--555-------| x3

E|----------------|
B|----------------|
G|-11111-999-888--|
D|-xxxxx-xxx-xxx--|
A|-99999-777-666--|
E|----------------|


Back to Figure 1:

E|------------| 
B|----5-4~----|  
G|------------|   
D|------------|    
A|-4~---------|     
E|------------| x4  
                      
E|---------|         
B|----4----|        
G|---4-4---|       
D|---------|      
A|-2-------|     
E|---------| x4 

Thenů
E|--------------| 
B|--------------|  
G|-1111-13-11---|   
D|--xxx--x-x----|    
A|--999/11\9----|    
E|--------------| 


Figure 4:

E|------------------|
B|------------------|
G|------------999---|
D|-99999--777-999---|
A|-99999--777-777---|
E|-77777--555-------| x4

E|------------| 
B|----5-4~----|  
G|------------|   
D|------------|    
A|-4~---------|     
E|------------| x4  
                      
E|---------|         
B|----4----|        
G|---4-4---|       
D|---------|      
A|-2-------|     
E|---------| x4 

E|----------------------| 
B|-555555555--44444444--|  
G|-666666666--44444444--|   
D|-666666666--44444444--|    
A|-444444444--22222222--|     
E|----------------------| x4 

E|--------------| 
B|--------------|  
G|-1111-13-11---|   
D|--xxx--x-x----|    
A|--999/11\9----|    
E|--------------| 

E|------------------|
B|------------------|
G|------------999---|
D|-99999--777-999---|
A|-99999--777-777---|
E|-77777--555-------| x10

E|----------------|
B|----------------|
G|-11111-999-888--|
D|-xxxxx-xxx-xxx--|
A|-99999-777-666--|
E|----------------| x2

End on:

E|----|
B|----|
G|-4--|
D|-4--|
A|-2--|
E|----|
Tap to rate this tab
 
# A B C D E F G H I J K L M N O P Q R S T U V W X Y Z