Guitaretab - guitar tabs
Song name
# A B C D E F G H I J K L M N O P Q R S T U V W X Y Z

Saves The Day - Hold tab

HOLD BY: GABBY (radiokid8@yahoo.com)

the songs pretty easy to play, just listen to the song to get a "HOLD" of
the rhythm and there you have it, enJOY!


verse:

e]------------------------------------------|
B]------------------------------------------|
G]--3--4-4--5-5-----------------------------|
D]--4--5-5--6-6--5--7-7-7--9/-10/-9/-10/-9--|  2x
A]--2--5-5--6-6--5--7-7-7--9/-10/-9/-10/-9--|
E]---------------3--5-5-5--7/--8/-7/--8/-7--|

Oh well, you've got me under your spell
and I don't think that I'm kidding around.
I don't think I can forget you now.

pre-chorus:

e]-------------------------|
B]-------------------------|
G]--3--4-4--5-5------------|
D]--4--5-5--6-6--5--7-7-7--|  3x
A]--2--5-5--6-6--5--7-7-7--|
E]---------------3--5-5-5--|

I once sat up on my roof and examined the planning of my town.
I saw the structured grid and pavement cutting through grass
and

chorus:

e]-------------------------|
B]-------------------------|
G]--4-4-4-4-4--6-6-6-6-6---|
D]--4-4-4-4-4--6-6-6-6-6---|  3x
A]--2-2-2-2-2--4-4-4-4-4---|
E]-------------------------|

e]-----------------------------------------|
B]-----------------------------------------|
G]--8-8-8-8-8--10-10-10-10-10--------------|
D]--8-8-8-8-8--10-10-10-10-10--8-8-8-8-8---|
A]--6-6-6-6-6---8--8--8--8--8--8-8-8-8-8---|
E]-----------------------------8-8-8-8-8---|

I remembered the cold of winter running up the legs of my pants.
I picked the nicest lawn and imagined the two of us
rolling around down along the ground.

verse:
[ Tab from: http://www.guitaretab.com/s/saves-the-day/30156.html ]
e]-------------------------------------------|
B]-------------------------------------------|
G]--3--4-4--5-5------------------------------|
D]--4--5-5--6-6--5--7-7-7--9/-10/-9/-10/-9---|  2x
A]--2--5-5--6-6--5--7-7-7--9/-10/-9/-10/-9---|
E]---------------3--5-5-5--7/--8/-7/--8/-7---|

I saw myself touch your face and I noticed jets begin to race above our heads.

pre-chorus:

e]--------------------------|
B]--------------------------|
G]--3--4-4--5-5-------------|
D]--4--5-5--6-6--5--7-7-7---|  3x
A]--2--5-5--6-6--5--7-7-7---|
E]---------------3--5-5-5---|

But I pinched my arm and remembered how much you hate me.
I remembered the fact that I can't see what you need

bridge:

e]-----
B]-----
G]--4--
D]--4--  15x
A]--2--      \
E]-----       \
                   = 2x
e]-----       /
B]-----      /
G]--6--
D]--6-- 15x
A]--4--
E]-----

and I'm too stupid to be aware of the beauty that you give this place
and how shitty this town would seem without you in it.
When you aren't around I let the shades fall down
to shut out all the sun's light and make myself feel all right.
What am I doing with my life?

verse:

e]-------------------------------------------|
B]-------------------------------------------|
G]--3--4-4--5-5------------------------------|
D]--4--5-5--6-6--5--7-7-7--9/-10/-9/-10/-9---|  2x
A]--2--5-5--6-6--5--7-7-7--9/-10/-9/-10/-9---|
E]---------------3--5-5-5--7/--8/-7/--8/-7---|

Oh well, youíve got me under your spell. And I donít think that Iím kidding around,
think I can forget you now.

pre-chorus:

e]--------------------------|
B]--------------------------|
G]--3--4-4--5-5-------------|
D]--4--5-5--6-6--5--7-7-7---|  3x
A]--2--5-5--6-6--5--7-7-7---|
E]---------------3--5-5-5---|

Remember that the only things we need sometimes
are chilly nights and warmer thighs

outro:

e]--------------------------|
B]--------------------------|
G]--4----6----6----4--------|
D]--4----6----6----4----4---|
A]--2----4----4----2----4---|
E]----------------------2---|

cause there's nothing like being held.
sometimes.
Related for Hold tab