Song name
# A B C D E F G H I J K L M N O P Q R S T U V W X Y Z

Saves The Day - Jessie And My Whetstone tab

Saves The Day-Jessie and My Whetstone
album-I'm Sorry I'm Leaving
Standard Tuning

| /  slide up
| \  slide down
| h  hammer-on
| p  pull-off
| ~  vibrato
| +  harmonic
| x  Mute note

Verse
e|-----------------------0-0-----------------------------------|
B|---6-----4-4---2-2-2---0-0-----------------------------------|
G|---6-----4-4---2-2-2---1-1-----------X8----------------------|
D|---6-----4-4---2-2-2---2-2-----------------------------------|
A|---4-----2-2---0-0-0---2-2-----------------------------------|
E|-----------------------0-0-----------------------------------|
Chorus
e|--------------------0-0-0-0-0-0-0-0--0-0-0-0-0-0-0-0--0-0-0-0-0-0-0-0----|
B|--2-2-2-2--4-4-4-4--0-0-0-0-0-0-0-0--2-2-2-2-2-2-2-2--0-0-0-0-0-0-0-0----|
G|--2-2-2-2--4-4-4-4--1-1-1-1-1-1-1-1--2-2-2-2-2-2-2-2--1-1-1-1-1-1-1-1----|
D|--2-2-2-2--4-4-4-4--2-2-2-2-2-2-2-2--2-2-2-2-2-2-2-2--2-2-2-2-2-2-2-2----|
A|--0-0-0-0--2-2-2-2--2-2-2-2-2-2-2-2--0-0-0-0-0-0-0-0--2-2-2-2-2-2-2-2----|
E|--------------------0-0-0-0-0-0-0-0-------------------0-0-0-0-0-0-0-0----|
Bridge palm muted
e|---------------------------------------------------------|
B|---------------------------------------------------------|
G|---------------------------------------------------------|
D|--6-6-6-6--4-4-4-4--2-2-2-2----9-9-9-9-------------------|
A|--4-4-4-4--2-2-2-2--0-0-0-0----7-7-7-7-------------------|
E|-------------------------------0-0-0-0-------------------|

Verse 2 is the same as first but played only 4x
Verse the is the same until A on the eighth time. you play it 8 times then.
Tap to rate this tab
 
# A B C D E F G H I J K L M N O P Q R S T U V W X Y Z