Song name
# A B C D E F G H I J K L M N O P Q R S T U V W X Y Z

Saves The Day - Shoulder To The Wheel tab

{Intro}
E--------------------------------------------------|
B-5-------5------5------5--------------------------|
G-7-b-9---7-b-9--7-b-9--7-b-9----------------------|
D--------------------------------------------------|
A--------------------------------------------------|
E--------------------------------------------------|

{Rhythm Figure 1}
E-----------------------------------|
B-----------------------------------|
G-----------------------------------|
D-2--2-2-2-2--2-2--2--2-2-2-2--2-2--|
A-2--2-2-2-2--2-2--2--2-2-2-2--2-2--|
E-0--0-0-0-0--0-0--0--0-0-0-0--0-0--|

E--------------------------------------|
B--------------------------------------|
G--------------------------------------|
D-7--7-7-7-7--7-7--7--7-7-7-7--6-6-----|
A-7--7-7-7-7--7-7--7--7-7-7-7--6-6-----|
E-5--5-5-5-5--5-5--5--5-5-5-5--4-4-----|

E-----------------------------------|
B-----------------------------------|
G-----------------------------------|
D-2--2-2-2-2--2-2--2--2-2-2-2--2-2--|
A-2--2-2-2-2--2-2--2--2-2-2-2--2-2--|
E-0--0-0-0-0--0-0--0--0-0-0-0--0-0--|

E--------------------------------------|
B--------------------------------------|
G--------------------------------------|
D-7--7-7-7-7--7-7--7--7-7-7-7--6-6-----|
A-7--7-7-7-7--7-7--7--7-7-7-7--6-6-----|
E-5--5-5-5-5--5-5--5--5-5-5-5--4-4-----|

E-------------------------------------|
B-------------------------------------|
G-8/9--9-9--8/9--9-9--8/9--9-9-9-9-9--|
D-8/9--9-9--8/9--9-9--8/9--9-9-9-9-9--|
A-6/7--7-7--6/7--7-7--6/7--7-7-7-7-7--|
E-------------------------------------|

E------------------------------------|
B------------------------------------|
G------------------------------------|
A-7--7-7-7-7--7-7--7--7-7-7-7--6-6---|
D-7--7-7-7-7--7-7--7--7-7-7-7--6-6---|
E-5--5-5-5-5--5-5--5--5-5-5-5--4-4---|

E----------------------------------|
B----------------------------------|
G----------------------------------|
D-2--2-2-2-2--2-2--2--2-2-2-2--2-2-|
A-2--2-2-2-2--2-2--2--2-2-2-2--2-2-|
E-0--0-0-0-0--0-0--0--0-0-0-0--0-0-|

E---------------------------------------|
B---------------------------------------|
G---------------------------------------|
A--7--7-7-7-7--7-7--7--7-7-7-7--9-9-----|
D--7--7-7-7-7--7-7--7--7-7-7-7--9-9-----|
E--5--5-5-5-5--5-5--5--5-5-5-5--7-7-----|


Fill 1
E-----0-0---|
B-4-/-5-5---|
G-----------|
D-----------|
A-----------|
E-----------|

Verse 1 {Bass plays: E, F#, C#, A, B}
And I say, "Just go.
Please, Dave, just drive.
Get us as far as far can be.
{Fill 2}
Get us away from tonight."

{Fill 2}
E--------|
B--------|
G-2--4---|
D-2--4---|
A-0--2---|
E--------|

Verse 1 {Rhythm Figure 1}
And I say, "I'm sorry.
I didn't mean to yell,
But I'm having quite a bad week
And I miss my mom."

{Rhythm Figure 1}
E----------------------------------------------|
B----------------------------------------------|
G-9-9-9-9-9-9-9-9-9-9-9-9-9-9-9-9--4-4-4-------|
D-9-9-9-9-9-9-9-9-9-9-9-9-9-9-9-9--4-4-4-2-/-1-|
A-7-7-7-7-7-7-7-7-7-7-7-7-7-7-7-7--2-2-2-------|
E----------------------------------------------|

E-------------------------------------------|
B-------------------------------------------|
G---4-4-4---------------4------------4------|
A---4-4-4-2-/-1--2-2-2-----2--2-2-2-----2---|
D---2-2-2--------4-4-4--------4-4-4---------|
E-------------------------------------------|

E-----------------------|
B-----------------------|
G-2--2--2--2--2--2------|
D-2--2--2--2--2--2------|
A-0--0--0--0--0--0------|
E-----------------------|

Chorus {Rhythm Figure 2 with Chorus Guitar 2}
And we drive
Dave steps on the gas
The world that's flying by is slick and smooth
Just big waves of light
The radio is playing Queen
And we're rocking out

{Rhythm Figure 2}
E-----------------------------------------------------|
B-----------------------------------------------------|
G-----------------2----2--6-----6--4-4----------------|
D-2----2--4----4--2----2--6-----6--4-4----------------|
A-2----2--4----4--0----0--4-----4--2-2----------------|
E-0----0--2----2--------------------------------------|

{Chorus Guitar 2}
E---------------------------------------------------------|
B-5--5--5-5-5---------------------------------------------|
G--------------4--4--4-4-4--2--2--2-2-2--1--1--2-2--4-----|
D---------------------------------------------------------|
A---------------------------------------------------------|
E---------------------------------------------------------|


Verse 2 {Rhythm Figure 3}
We're going now
Cause, hey, this is it
This is where we are
Out here where silence is
Seventy miles an hour and the windows up tight
And I am home

{Rhythm Figure 3}
E---------------------------------|
B---------------------------------|
G---------------------------------|
D-2-2-2-2-2-2-2-2-2-2-2-2-2-2-2-2-|
A-2-2-2-2-2-2-2-2-2-2-2-2-2-2-2-2-|
E-0-0-0-0-0-0-0-0-0-0-0-0-0-0-0-0-|

E---------------------------------|
B---------------------------------|
G---------------------------------|
D-4-4-4-4-4-4-4-4-4-4-4-4-4-4-4-4-|
A-4-4-4-4-4-4-4-4-4-4-4-4-4-4-4-4-|
E-2-2-2-2-2-2-2-2-2-2-2-2-2-2-2-2-|

E-------------------------------|
B-------------------------------|
G---------4--4---------4--4-----|
D--2-2-2--2--2--2-2-2--2--2-----|
A--4-4-4--4--4--4-4-4--4--4-----|
E-------------------------------|

E---------------------------------|
B---------------------------------|
G-2-2-2--2--2--2-2-2--2--4--------|
D-2-2-2--2--2--2-2-2--2--4--------|
A-0-0-0--0--0--0-0-0--0--2--------|
E---------------------------------|

E------------------------------------------------|
B------------------------------------------------|
G-9-9-9-9-9-9-9-9-9-9-9-9-9-9-9-9--4-4-4---------|
D-9-9-9-9-9-9-9-9-9-9-9-9-9-9-9-9--4-4-4-2-/-1---|
A-7-7-7-7-7-7-7-7-7-7-7-7-7-7-7-7--2-2-2---------|
E------------------------------------------------|

E-----------------------------------------|
B-----------------------------------------|
G-4-4-4---------------4------------4------|
D-4-4-4-2-/-1--2-2-2-----2--2-2-2-----2---|
A-2-2-2--------4-4-4--------4-4-4---------|
E-----------------------------------------|

E-----------------------|
B-----------------------|
G-2--2--2--2--2--2------|
D-2--2--2--2--2--2------|
A-0--0--0--0--0--0------|
E-----------------------|

Play Chorus

Then play {Rhythm Figure 4 while Chris sings the chorus}

{Rhythm Figure 4}
E--------------------------------------------------------------|
B--------------------------------------------------------------|
G-----------------------------2--2--2-2-2---6--6--4-4-4--------|
D-2--2--2-2-2---4--4--4-4-4---2--2--2-2-2---6--6--4-4-4--------|
A-2--2--2-2-2---4--4--4-4-4---0--0--0-0-0---4--4--2-2-2--------|
E-0--0--0-0-0---2--2--2-2-2------------------------------------|


Play {Fill 3} when Chris sings the chorus again
{Fill 3}
E-----------------|
B-----------------|
G-----------------|
D-2-(Let-Ring)----|
A-2---------------|
E-0---------------|

Verse 3 {Rhythm Figure 3}
And I say, "Just go.
Please, Dave, just drive.
Get us as far as far can be.
Get us away from tonight."
Seventy miles an hour and the windows up tight
And I am home

Play Chorus
Then play {Rhythm Figure 4}

End:
E----
B----
G----
D-2--
A-2--
E-0--
Tap to rate this tab
# A B C D E F G H I J K L M N O P Q R S T U V W X Y Z