Song name
# A B C D E F G H I J K L M N O P Q R S T U V W X Y Z

Saves The Day - Daybreak tab

-----------------------------------------------------------------------------
                            Saves The Day - Daybreak
-----------------------------------------------------------------------------

***IMPORTANT***: This tab uses a capo on the first fret for sections I-III. At section
IV is where you take the capo off, don't worry, I have a paragraph there to explain. I 
watched many live performances and couldn't figure out a different
way. All notes are relative to the capo, where necessary.

I took this from a Word document i made, so i hope i got all the weird errors.




Section I: "Somehow You Love Me" 

The open-root section changes order a couple times, pretty easy to figure out.
e|--------------------------------------------------------------------------------------|
B|-----0-0---0-0----0-0---0-0-------0---0-0-----0-0---0-0-------------------------------|
G|-----4-4---2-0----4-4---2-0-----3-----2-0-----4-4---2-0-------------------------------|
D|--------------------------------------------------------------------------------------|
A|--------------------------------------------------------------------------------------|
E|-3-3-----3-----3-3----3-----0-0-----0-----0-0-----0-----------------------------------|




Section II: "Fucked Up Past the Point of Fixing"
e|-------------------------------|----|-0-0-0-0-0-0-0-0---------2-2-2-2-0-0-0-0---------|
B|-------------------------------|----|-0-0-0-0-0-0-0-0---------1-1-1-1-3-3-3-3---------|
G|---------------5--5-5-2--2-2---|----|-0-0-0-0-0-0-0-0-5-5-5-5-2-2-2-2-1-1-1-1---------|
D|-2--2-2-5--5-5-5--5-5-4--4-4-2-|-X4-|-2-2-2-2-2-2-2-2-5-5-5-5-2-2-2-2-0-0-0-0---------|
A|-2--2-2-2--2-2-3--3-3-0--0-0-2-|----|-2-2-2-2-2-2-2-2-3-3-3-3-0-0-0-0-2-2-2-2---------|
E|-0--0-0-0--0-0-3--3-3--------0-|----|-0-0-0-0-0-0-0-0-3-3-3-3---------0-0-0-0---------|

e|-----------------------------7-7-7-7-7-7-7-2-2-2-2-2-2-2-2-0-0-0-0-0-0-0-0-0-0-0-0----|
B|-----------------------------8-8-8-8-8-8-8-3-3-3-3-3-3-3-3-1-1-1-1-1-1-1-1-0-0-0-0----|
G|-7/9-9-9\7-7-7/9-9-9\7-7-7/9-9-9-9-9-9-9-9-0-0-0-0-0-0-0-0-0-0-0-0-0-0-0-0-1-1-1-1----|
D|-x-x-x-x-x-x-x-x-x-x-x-x-x-x-9-9-9-9-9-9-9-0-0-0-0-0-0-0-0-2-2-2-2-2-2-2-2-0-0-0-0----| X2
A|-5/7-7-7\5-5-5/7-7-7\5-5-5/7-7-7-7-7-7-7-7-2-2-2-2-2-2-2-2-3-3-3-3-3-3-3-3-2-2-2-2----|
E|-------------------------------------------3-3-3-3-3-3-3-3-----------------0-0-0-0----|

e|-------------------------------|----|-0-0-0-0-0-0-0-0---------2-2-2-2-0-0-0-0---------|
B|-------------------------------|----|-0-0-0-0-0-0-0-0---------1-1-1-1-3-3-3-3---------|
G|---------------5--5-5-2--2-2---|----|-0-0-0-0-0-0-0-0-5-5-5-5-2-2-2-2-1-1-1-1---------|
D|-2--2-2-5--5-5-5--5-5-4--4-4-2-|-X2-|-2-2-2-2-2-2-2-2-5-5-5-5-2-2-2-2-0-0-0-0---------|
A|-2--2-2-2--2-2-3--3-3-0--0-0-2-|----|-2-2-2-2-2-2-2-2-3-3-3-3-0-0-0-0-2-2-2-2---------|
E|-0--0-0-0--0-0-3--3-3--------0-|----|-0-0-0-0-0-0-0-0-3-3-3-3---------0-0-0-0---------|

e|-----------------------------7-7-7-7-7-7-7-2-2-2-2-2-2-2-2-0-0-0-0-0-0-0-0-0-0-0-0----|
B|-----------------------------8-8-8-8-8-8-8-3-3-3-3-3-3-3-3-1-1-1-1-1-1-1-1-0-0-0-0----|
G|-7/9-9-9\7-7-7/9-9-9\7-7-7/9-9-9-9-9-9-9-9-0-0-0-0-0-0-0-0-0-0-0-0-0-0-0-0-1-1-1-1----|
D|-x-x-x-x-x-x-x-x-x-x-x-x-x-x-9-9-9-9-9-9-9-0-0-0-0-0-0-0-0-2-2-2-2-2-2-2-2-0-0-0-0----| X2
A|-5/7-7-7\5-5-5/7-7-7\5-5-5/7-7-7-7-7-7-7-7-2-2-2-2-2-2-2-2-3-3-3-3-3-3-3-3-2-2-2-2----|
E|-------------------------------------------3-3-3-3-3-3-3-3-----------------0-0-0-0----|

e|---0-0-|0~--3~--2~-3-2|----|-7-7-7-7-7-7-7-7-2-2-2-2-2-2-2-2-0-0-0-0-0-0-0-0-0-0-0-0--|
B|---0-0-|1~--0~--3~-3-3|----|-8-8-8-8-8-8-8-8-3-3-3-3-3-3-3-3-1-1-1-1-1-1-1-1-0-0-0-0--|
G|-2-2-2-|0~--0~--2~-2-2|----|-9-9-9-9-9-9-9-9-0-0-0-0-0-0-0-0-0-0-0-0-0-0-0-0-1-1-1-1--|
D|-1-1-1-|2~--0~--0~-0-0|-X3-|-9-9-9-9-9-9-9-9-0-0-0-0-0-0-0-0-2-2-2-2-2-2-2-2-0-0-0-0--|
A|-2-2-2-|3~--2~--------|----|-7-7-7-7-7-7-7-7-2-2-2-2-2-2-2-2-3-3-3-3-3-3-3-3-2-2-2-2--|
E|-------|----3~--------|----|-----------------3-3-3-3-3-3-3-3-----------------0-0-0-0--|

e|-----------------------------7-7-7-7-7-7-7-2-2-2-2-2-2-2-2-0-0-0-0-0-0-0-0-0-0-0-0----|
B|-----------------------------8-8-8-8-8-8-8-3-3-3-3-3-3-3-3-1-1-1-1-1-1-1-1-0-0-0-0----|
G|-7/9-9-9\7-7-7/9-9-9\7-7-7/9-9-9-9-9-9-9-9-0-0-0-0-0-0-0-0-0-0-0-0-0-0-0-0-1-1-1-1----|
D|-x-x-x-x-x-x-x-x-x-x-x-x-x-x-9-9-9-9-9-9-9-0-0-0-0-0-0-0-0-2-2-2-2-2-2-2-2-0-0-0-0----|
A|-5/7-7-7\5-5-5/7-7-7\5-5-5/7-7-7-7-7-7-7-7-2-2-2-2-2-2-2-2-3-3-3-3-3-3-3-3-2-2-2-2----|
E|-------------------------------------------3-3-3-3-3-3-3-3-----------------0-0-0-0----|

e|------------------------------------7-7-7-7-7-7-7-7-2-2----------------------------0--|
B|------------------------------------8-8-8-8-8-8-8-8-3-3----------------------------0--|
G|-7/9-9-9/11-11-11/12-12-12/14-14-14-9-9-9-9-9-9-9-9-0-0-----7--9-7-9---------------0--|
D|-x-x-x-x-x--x--x--x--x--x--x--x--x--9-9-9-9-9-9-9-9-0-0-7h9------------------------2--|
A|-5/7-7-7/9--9--9/-10-10-10/12-12-12-7-7-7-7-7-7-7-7-2-2--------------3-2-0---3-----2--|
E|----------------------------------------------------3-3--------------------3----3--0--|




Section III: "8 AM"

Arun has a really cool effect on his guitar for this part. From what i see
in videos, he does something like this, but it's hard to tell.
e|-7----------------7----------------6--------------------------------------------------|
B|-9-(tremolo pick)-7-(tremolo pick)-7-(tremolo pick)-----------------------------------|
G|-9----------------8----------------8--------------------------------------------------|
D|--------------------------------------------------------------------------------------|
A|--------------------------------------------------------------------------------------|
E|--------------------------------------------------------------------------------------|

After all the bass:
e|------11------9-----7~---7-----6-----4~---4-----2-----0~------------------------------|
B|--------------------------------------------------------------------------------------|
G|-9/11----11\9---9\8----8---8\6---6\4----4---4\3---3\1--------8-----6-----4-----3-----4|
D|--------------------------------------------------------------------------------------|
A|---------------------------------------------------------7/9---9\7---7\6---6\4---4/6--|
E|--------------------------------------------------------------------------------------|

Some of these parts are played more than once. It's a bit hard to display but
again, not difficult.
e|------|-----------------------|-----------------------0~|-----------------------------|
B|------|-0-0~--0-0~--0-0~--0-0~|-----0---------0-------0~|-----------------------------|
G|------|-4-4~--4-3~--4-4~--4-3~|-------3-----3-------1-1~|-4-4-4-4-4-4-4-3-4/6--6-6-6-6|
D|------|-6-6~--4-4~--6-6~--4-4~|---6-------4-------1---1~|-----------------------------|
A|---6~-|-----------------------|-------------------------|-----------------------------|
E|-0----|-----------------------|-4-------2-------0-------|-----------------------------|

e|--------------------------------------------------------------------------------------|
B|--------------------------------------------------------------------------------------|
G|-6-6-6-4-6/8--8-8-8-8-8-8-8-6-8/9-9/11-11b-11b-11b-11b--8brbrbrb--8br-6-4--4br-1-3br-1|
D|--------------------------------------------------------------------------------------|
A|--------------------------------------------------------------------------------------|
E|--------------------------------------------------------------------------------------|

e|--------------------------------------------------------------------------------------|
B|--------------------------------------------------------------------------------------|
G|-3--4--6--11~-------------------------------------------------------------------------|
D|--------------------------------------------------------------------------------------|
A|--------------------------------------------------------------------------------------|
E|--------------------------------------------------------------------------------------|

Guitar 1:
e|--------------------------------------------------------------------------------------|
B|--------------------------------------------------------------------------------------|
G|---8-8-4-4-4-4-4-4-4-4-4-4-4-4----8-8-6-6-6-6-6-6-6-6-6-6-6-6-------------------------|
D|---x-x-x-x-x-x-x-x-x-x-x-x-x-x----x-x-x-x-x-x-x-x-x-x-x-x-x-x-------------------------|
A|---6-6-2-2-2-2-2-2-2-2-2-2-2-2----6-6-4-4-4-4-4-4-4-4-4-4-4-4-------------------------|
E|-0------------------------------2-----------------------------------------------------|
Guitar 2:
e|-x-x-7-7-x-x-7-7-x-x-7-7-x-x-7-7-x-x-6-6-x-x-6-6-x-x-6-6-x-x-6-6----------------------|
B|-x-x-9-9-x-x-9-9-x-x-9-9-x-x-9-9-x-x-7-7-x-x-7-7-x-x-7-7-x-x-7-7----------------------|
G|-x-x-9-9-x-x-9-9-x-x-9-9-x-x-9-9-x-x-8-8-x-x-8-8-x-x-8-8-x-x-8-8----------------------|
D|--------------------------------------------------------------------------------------|
A|--------------------------------------------------------------------------------------|
E|--------------------------------------------------------------------------------------|

Transition to next section:
e|------------------------0~|-----------------------------------------------------------|
B|-----0---------0--------0~|--0---0---0------------------------------------------------|
G|-------3-----3-------1--1~|--------3--------------------------------------------------|
D|---6-------4-------1----1~|----4-------4----------------------------------------------|
A|--------------------------|-----------------------------------------------------------|
E|-4-------2-------0--------|-----------------------------------------------------------|




Section IV: "Zig Zag"
Here's where the capo comes off. I know, it's unorthodox and 
just weird, but after watching many videos and simply listening to the 
song, I can't figure out how Chris plays these parts with the capo still 
on. Maybe he has some strings differently tuned, who knows, but if anyone
can tell me how he does it that would be much appreciated. 

e|-0-0-0--0--0-0--0-0-0--0-0-0--0--0-0--0-0-0|------------|-0-0-0-0---------------------|
B|-1-1-1--1--1-1--0-0-0--1-1-1--1--1-1--0-0-0|------------|-0-0-0-0---------------------|
G|-2-2-2--2--2-2--2-2-2--0-0-0--0--0-0--0-0-0|------------|-1-1-1-1---------------------|
D|-2-2-2--2--2-2--2-2-2--2-2-2--2--2-2--2-2-2|-Many times-|-0-0-0-0-(transition chord)--|
A|-0-0-0--0--0-0--0-0-0--3-3-3--3--3-3--3-3-3|------------|-2-2-2-2---------------------|
E|-------------------------------------------|------------|-0-0-0-0---------------------|

e|-0-0-0-0--0-0-0-0--0-0-0--3-3-3-3--3-3-3-3--3-3-3--1-1-1-1--1-1-1-1--1-1-1--0-0-0-0---|
B|-1-1-1-1--1-1-1-1--1-1-1--3-3-3-3--3-3-3-3--3-3-3--1-1-1-1--1-1-1-1--1-1-1--0-0-0-0---|
G|-2-2-2-2--2-2-2-2--2-2-2--4-4-4-4--4-4-4-4--4-4-4--2-2-2-2--2-2-2-2--2-2-2--1-1-1-1---|
D|-2-2-2-2--2-2-2-2--2-2-2--5-5-5-5--5-5-5-5--5-5-5--3-3-3-3--3-3-3-3--3-3-3--0-0-0-0---|
A|-0-0-0-0--0-0-0-0--0-0-0--5-5-5-5--5-5-5-5--5-5-5--3-3-3-3--3-3-3-3--3-3-3--2-2-2-2---|
E|--------------------------3-3-3-3--3-3-3-3--3-3-3--1-1-1-1--1-1-1-1--1-1-1--0-0-0-0---|

e|-0-0-0-0--0-0-0|----|-----------------------------------------------------------------|
B|-0-0-0-0--0-0-0|----|-----------------------------------------------------------------|
G|-1-1-1-1--1-1-1|----|-----------------------------------------------------------------|
D|-0-0-0-0--0-0-0|-X3-|-----------------------------------------------------------------|
A|-2-2-2-2--2-2-2|----|--7-7-7-7-5-3-2--2h3-3----7-7-7-7-5-3-2-3-2--7-7-7-10-10-10-12-12|
E|-0-0-0-0--0-0-0|----|-----------------------3-----------------------------------------|

e|----------------------------------------------|------------------------|-0-0-0-0-0-0-0|
B|----------------------------------------------|------------------------|-0-0-0-0-0-0-0|
G|----------------------------------------------|------------------------|-1-1-1-1-1-1-1|
D|----------------------------------------------|-back to chord sections-|-0-0-0-0-0-0-0|
A|-12-14-12-14-14b15r14-----14b15r14------------|------------------------|-2-2-2-2-2-2-2|
E|----------------------12-----------12--10br--8|------------------------|-0-0-0-0-0-0-0|




Section V: "Daybreak" 
many parts repeat here too. To write them all out again would be redundant I think.
e|-0~----0~-0-0-0-0-0-0----------------------------------|------------|-----------------|
B|-1~----1~-1-1-1-1-1-1----------------------------------|------------|-----------------|
G|-0~-4~-2~-2-2-2-2-2-2---------------------4-4-4-4-4-4-4|------------|-----------------|
D|-2~-5~-2~-2-2-2-2-2-2-3-3-3-3-3-2-2-2-2-3-5-5-5-5-5-5-5|-many times-|-----------------|
A|-3~-5~-0~-0-0-0-0-0-0-3-3-3-3-3-3-3-3-3-3-5-5-5-5-5-5-5|------------|-----------------|
E|----3~----------3-3-3-1-1-0h1-1-0-0-0-0-1-3-3-3-3-3-3-3|------------|-----------------|

e|--------------------------------------------------------------------------------------|
B|--------------------------------------------------------------------------------------|
G|--------------------------------------------------------------------------------------|
D|----5--5--9b10r9-7-------------7-7-7-5------------------------------------------------|
A|-3-----------------5/7--5-3-3----------7-5brbrb---------------------------------------|
E|--------------------------------------------------------------------------------------|

e|--------------------------------------------------------------------------------------|
B|--------------------------------------------------------------------------------------|
G|--------------------------------------------------------------------------------------|
D|-2--2-2--2-2--2-2--2-3--3-3--3-3--3-3--3-5--5-5--5-5--5-5--5-7--7-7--7-6--6-6--3-3-3-3|
A|-3--3-3--3-3--3-3--3-3--3-3--3-3--3-3--3-5--5-5--5-5--5-5--5-7--7-7--7-7--7-7--3-3-3-3|
E|-0--0-0--0-0--0-0--0-1--1-1--1-1--1-1--1-3--3-3--3-3--3-3--3-5--5-5--5-4--4-4--1-1-0h1|

e|----------------------------|---------------------------------------------------------|
B|----------------------------|---------------------------------------------------------|
G|---------------4-4-4-4-4-4-4|---------------------------------------------------------|
D|-3-2-2-2-2-2-3-5-5-5-5-5-5-5|---------------------------------------------------------|
A|-3-3-3-3-3-3-3-5-5-5-5-5-5-5|---------------------------------------------------------|
E|-1-0-0-0-0-0-1-3-3-3-3-3-3-3|---------------------------------------------------------|

Ending bit:
e|--------------------------------------------------|------------0~---------------------|
B|-----1-0h1-0-------0h1p0---------1-----------1----|------------1~---------------------|
G|---2---------0---0-------0-----2---2-------2---2--|------------0~---------------------|
D|-----------------------------2-------2---2-------2|-end chord--2~---------------------|
A|-0------------------------------------------------|------------3~---------------------|
E|---------------3-----------1-----------1----------|------------1~---------------------|
Tap to rate this tab
# A B C D E F G H I J K L M N O P Q R S T U V W X Y Z