Song name
# A B C D E F G H I J K L M N O P Q R S T U V W X Y Z

Saves The Day - Ups And Downs tab

Up's And Downs

Intro (Delay Pedal Used)
E |-------------------------------------------------------------------|
B |-5-------5--------6--5---------------------------------------------|
G |-5-------5--------5--5--2--0---------------------------------------|
D |-5-------0--------------3--3--------- 4x --------------------------|
A |-------------------------------------------------------------------|
E |-------------------------------------------------------------------|

Verse 1 
And look at myself..
E |-------------------------------------------------------------------|
B |-5555555555555555666666665555555522222222200000000-----------------|
G |-5555555555555555555555555555555533333333333333333-----------------|
D |-5555555500000000----------------------------------------- 2x -----|
A |-------------------------------------------------------------------|
E |-------------------------------------------------------------------|
    *************************************************(Palm Mute)

Second time playing verse
E |--------------------|
B |--------------------|
G |-66-6-55-5-22-2-0-0-|
D |-55-5-55-5-33-3-3-3-|
A |--------------------|
E |--------------------|

And I'll get the rope..
E |------------0000000000------------------00000----------------------|
B |-1111111101-2222222222-1111111111-11111-22222-1111111111-1111111111|
G |-2222222222-0000000000-2222222222-22222-00000-2222222222-2222222222|
D |-2222222222-0000000000-3333333333-22222-00000-2222222222-3333333333|
A |-0000000000-2222222222-3333333333-00000-22222-0000000000-3333333333|
E |------------3333333333------------------33333----------------------|

Pre-Chorus
Above the Cool Earth..
E |-----------00-00-000000-------------|
B |1111111111-22-22-222222-------------|
G |0000000000-00-00-000000-------------|
D |2222222222-00-00-000000-------------|
A |3333333333-22-22-222222-------------|
E |-----------33-33-333333-------------|

Chorus 
And I'm gonna to get to..
E |---------2-2-2-2----------------------------------|
B |-1-1-1-1-3-3-3-3-6-6-5-5--------------------------|
G |-0-0-0-0-2-2-2-2-5-5-5-5-2-2-0-0------------------|
D |-2-2-2-2---------3-3-3-3-3-3-3-3------- 4x -------|
A |-3-3-3-3------------------------------------------|
E |--------------------------------------------------|

After Playing Chorus
E |--------------------|
B |--------------------|
G |-66-6-55-5-22-2-0-0-|
D |-55-5-55-5-33-3-3-3-|
A |--------------------|
E |--------------------|

Verse 2
And as my skin collects..
E |------------0000000000------------------00000------------0000000000|
B |-1111111101-2222222222-1111111111-11111-22222-1111111111-2222222222|
G |-2222222222-0000000000-2222222222-22222-00000-0000000000-0000000000|
D |-2222222222-0000000000-3333333333-22222-00000-2222222222-0000000000|
A |-0000000000-2222222222-3333333333-00000-22222-3333333333-2222222222|
E |------------3333333333------------------33333------------3333333333|

That I dont exist..
E |-----------0-0-0-0---------------|
B |1111111111-2-2-2-2-1-1-1---------|
G |2222222222-0-0-0-0-0-0-0-- Rest -|
D |2222222222-0-0-0-0-2-2-2---------|
A |0000000000-2-2-2-2-3-3-3---------|
E |-----------3-3-3-3---------------|

Bridge (Other guitar)
Solo palm mute the notes between *...*
E|-------------------------------------------------|
B|-------------------------------------------------|
G|--*555555*--*555555*--*555555*--3--3h5h3---------|
D|---------------------3-----------3------5--- 4x -|
A|-3---------5-------------------------------------|
E|-------------------------------------------------|

Of the ropes that I..
E |------2~--------------|
B |-1~---3~---6~---------|
G |-0~---2~---5~---------|
D |-2~--------3~--- 4x --|
A |-3~-------------------|
E |----------------------|

After playing solo/strum
E |--------------------|
B |--------------------|
G |-66-6-55-5-22-2-0-0-|
D |-55-5-55-5-33-3-3-3-|
A |--------------------|
E |--------------------|

Chorus/Breakdown 
And I'm gonna to get to..
E |---------2222222----------------------------------|
B |-1111111-3333333-66665555-------------------------|
G |-0000000-2222222-55555555-22220000----------------|
D |-2222222---------33333333-33333333------ 8x ------|
A |-3333333------------------------------------------|
E |--------------------------------------------------|
That's pretty much it.
Enjoy.
Tap to rate this tab
 
# A B C D E F G H I J K L M N O P Q R S T U V W X Y Z