Song name
# A B C D E F G H I J K L M N O P Q R S T U V W X Y Z

Saves The Day - In My Waking Life tab

In My Waking Life 

Guitar 1
eb|-----------------|-----------------|---3---------2---|-----------------|
Bb|---0---1h3---3---|---3---3p0-------|-------3-0---1---|---0---1h3-------|
F#|-----0-----0-2---|---2---2p0-0-----|-------------0---|-0---0-----0-----|
Db|-------------0---|---0---0-----0---|-------------2---|-2-----------0---|
Ab|-------------0---|---------------0-|-3-----------0---|-2-------------2-|
Eb|-0-----------2---|-3---3-----------|-----------------|-0---------------|

eb|---3-----------2-|---------0---2---|---3-------------|---------2-------|
Bb|-------3-0---0---|-0-------0---0---|-----1-------1---|-----1-----1-----|
F#|-------------2---|---2-----0---0---|-------0---0---0-|---2---2-----2---|
Db|-------------1---|-----1---2-------|---------2-------|-0-------------0-|
Ab|-3-----------2---|-------2-2-------|-0---------------|-----------------|
Eb|-----------------|---------0-------|-----------------|-----------------|

eb|-----------------|-----------------|---3---------2---|-----------------|
Bb|---0---1h3---3---|---3---3p0-------|-------3-0---1---|---0---1h3-------|
F#|-----0-----0-2---|---2---2p0-0-----|-------------0---|-0---0-----0-----|
Db|-------------0---|---0---0-----0---|-------------2---|-2-----------0---|
Ab|-------------0---|---------------0-|-3-----------0---|-2-------------2-|
Eb|-0-----------2---|-3---3-----------|-----------------|-0---------------|

eb|---3-----------2-|---------0---2---|---3-------------|---------2-------|
Bb|-------3-0---0---|-0-------0---0---|-----1-------1---|-----1-----1-----|
F#|-------------2---|---2-----0---0---|-------0---0---0-|---2---2-----2---|
Db|-------------1---|-----1---2-------|---------2-------|-0---------------|
Ab|-3-----------2---|-------2-2-------|-0---------------|-----------------|
Eb|-----------------|---------0-------|-----------------|-----------------|

eb|-3-2-0-2---2---0-|---0-0-0---------|-0-----0-0-------|-----------------|
Bb|-0-0-0-3---3---1-|---1-0-0-0-0-1-0-|-0-----0-0-------|-3-----3-3-------|
F#|-------------#---|---------0-0-2-0-|-0---#-0-0---#---|-4---#-4-4---#---|
Db|-------------#---|-----------------|-2---#-2-2---#---|-4---#-4-4---#---|
Ab|-----------------|-----------------|-2-----2-2-------|-x-----x-x-------|
Eb|-----------------|-----------------|-0-----0-0-------|-3-----3-3-------|

eb|-2-----2-2-------|-0-0-0-0---2-2-0-|-0-----0-0-------|-----------------|
Bb|-1-----1-1-------|-0-0-0-0---1-1-0-|-0-----0-0-------|-3-----3-3-------|
F#|-0---#-0-0---#---|-0-0-0-0-#-2-2-0-|-0---#-0-0---#---|-4---#-4-4---#---|
Db|-2---#-2-2---#---|-2-2-2-2-#-1-1-0-|-2---#-2-2---#---|-4---#-4-4---#---|
Ab|-0-----0-0-------|-3-3-3-3---0-0---|-2-----2-2-------|-x-----x-x-------|
Eb|-----------------|-3-3-3-3---------|-0-----0-0-------|-3-----3-3-------|

eb|-2-----2-2-------|-0-0-0-0---2-2-0-|-----------------|-----------------|
Bb|-1-----1-1-------|-0-0-0-0---1-1-0-|---0---1h3---3---|---3---3h0-------|
F#|-0---#-0-0---#---|-0-0-0-0-#-2-2-0-|-----0-----0-2---|---2---2h0-0-----|
Db|-2---#-2-2---#---|-2-2-2-2-#-1-1-0-|-------------0---|---0---0-----0---|
Ab|-0-----0-0-------|-3-3-3-3---0-0---|-------------0---|---------------0-|
Eb|-----------------|-3-3-3-3---------|-0-----------2---|-3---3-----------|

eb|-----------------|-----------------|---3---------2---|-----------------|
Bb|---0---1h3---3---|---3---3p0-------|-------3-0---1---|---0---1h3-------|
F#|-----0-----0-2---|---2---2p0-0-----|-------------0---|-0---0-----0-----|
Db|-------------0---|---0---0-----0---|-------------2---|-2-----------0---|
Ab|-------------0---|---------------0-|-3-----------0---|-2-------------2-|
Eb|-0-----------2---|-3---3-----------|-----------------|-0---------------|

eb|---3-----------2-|---------0---2---|---3-------------|---------2-------|
Bb|-------3-0---0---|-0-------0---0---|-----1-------1---|-----1-----1-----|
F#|-------------2---|---2-----0---0---|-------0---0---0-|---2---2-----2---|
Db|-------------1---|-----1---2-------|---------2-------|-0---------------|
Ab|-3-----------2---|-------2-2-------|-0---------------|-----------------|
Eb|-----------------|---------0-------|-----------------|-----------------|

eb|-----------------|-----------------|---3---------2---|-----------------|
Bb|---0---1h3---3---|---3---3p0-------|-------3-0---1---|---0---1h3-------|
F#|-----0-----0-2---|---2---2p0-0-----|-------------0---|-0---0-----0-----|
Db|-------------0---|---0---0-----0---|-------------2---|-2-----------0---|
Ab|-------------0---|---------------0-|-3-----------0---|-2-------------2-|
Eb|-0-----------2---|-3---3-----------|-----------------|-0---------------|

eb|---3-----------2-|---------0---2---|---3-------------|---------2-------|
Bb|-------3-0---0---|-0-------0---0---|-----1-------1---|-----1-----1-----|
F#|-------------2---|---2-----0---0---|-------0---0---0-|---2---2-----2---|
Db|-------------1---|-----1---2-------|---------2-------|-0---------------|
Ab|-3-----------2---|-------2-2-------|-0---------------|-----------------|
Eb|-----------------|---------0-------|-----------------|-----------------|

eb|-3-2-0-2---2---0-|---0-0-0---------|-0-----0-0-------|-----------------|
Bb|-0-0-0-3---3---1-|---1-0-0-0-0-1-0-|-0-----0-0-------|-3-----3-3-------|
F#|-------------#---|---------0-0-2-0-|-0---#-0-0---#---|-4---#-4-4---#---|
Db|-------------#---|-----------------|-2---#-2-2---#---|-4---#-4-4---#---|
Ab|-----------------|-----------------|-2-----2-2-------|-x-----x-x-------|
Eb|-----------------|-----------------|-0-----0-0-------|-3-----3-3-------|

eb|-2-----2-2-------|-0-0-0-0---2-2-0-|-0-----0-0-------|-----------------|
Bb|-1-----1-1-------|-0-0-0-0---1-1-0-|-0-----0-0-------|-3-----3-3-------|
F#|-0---#-0-0---#---|-0-0-0-0-#-2-2-0-|-0---#-0-0---#---|-4---#-4-4---#---|
Db|-2---#-2-2---#---|-2-2-2-2-#-1-1-0-|-2---#-2-2---#---|-4---#-4-4---#---|
Ab|-0-----0-0-------|-3-3-3-3---0-0---|-2-----2-2-------|-x-----x-x-------|
Eb|-----------------|-3-3-3-3---------|-0-----0-0-------|-3-----3-3-------|

eb|-2-----2-2-------|-0-0-0-0---2-2-0-|-0-----0-0-------|-----------------|
Bb|-1-----1-1-------|-0-0-0-0---1-1-0-|-0-----0-0-------|-3-----3-3-------|
F#|-0---#-0-0---#---|-0-0-0-0-#-2-2-0-|-0---#-0-0---#---|-4---#-4-4---#---|
Db|-2---#-2-2---#---|-2-2-2-2-#-1-1-0-|-2---#-2-2---#---|-4---#-4-4---#---|
Ab|-0-----0-0-------|-3-3-3-3---0-0---|-2-----2-2-------|-x-----x-x-------|
Eb|-----------------|-3-3-3-3---------|-0-----0-0-------|-3-----3-3-------|

eb|-2-----2-2-------|-0-0-0-0---2-2-0-|-0-----0-0-------|-----------------|
Bb|-1-----1-1-------|-0-0-0-0---1-1-0-|-0-----0-0-------|-3-----3-3-------|
F#|-0---#-0-0---#---|-0-0-0-0-#-2-2-0-|-0---#-0-0---#---|-4---#-4-4---#---|
Db|-2---#-2-2---#---|-2-2-2-2-#-1-1-0-|-2---#-2-2---#---|-4---#-4-4---#---|
Ab|-0-----0-0-------|-3-3-3-3---0-0---|-2-----2-2-------|-x-----x-x-------|
Eb|-----------------|-3-3-3-3---------|-0-----0-0-------|-3-----3-3-------|

eb|-2-----2-2-------|-0-0-0-0---2-2-0-|
Bb|-1-----1-1-------|-0-0-0-0---1-1-0-|
F#|-0---#-0-0---#---|-0-0-0-0-#-2-2-0-|
Db|-2---#-2-2---#---|-2-2-2-2-#-1-1-0-|
Ab|-0-----0-0-------|-3-3-3-3---0-0---|
Eb|-----------------|-3-3-3-3---------|

eb|-----------------|-----------------|---3---------2---|-----------------|
Bb|---0---1h3---3---|---3---3p0-------|-------3-0---1---|---0---1h3-------|
F#|-----0-----0-2---|---2---2p0-0-----|-------------0---|-0---0-----0-----|
Db|-------------0---|---0---0-----0---|-------------2---|-2-----------0---|
Ab|-------------0---|---------------0-|-3-----------0---|-2-------------2-|
Eb|-0-----------2---|-3---3-----------|-----------------|-0---------------|

eb|---3-----------2-|---------0---2---|---3-------------|---------2-------|
Bb|-------3-0---0---|-0-------0---0---|-----1-------1---|-----1-----1-----|
F#|-------------2---|---2-----0---0---|-------0---0---0-|---2---2-----2---|
Db|-------------1---|-----1---2-------|---------2-------|-0-------------0-|
Ab|-3-----------2---|-------2-2-------|-0---------------|-----------------|
Eb|-----------------|---------0-------|-----------------|-----------------|

eb|-----------------|-----------------|---3---------2---|-----------------|
Bb|---0---1h3---3---|---3---3p0-------|-------3-0---1---|---0---1h3-------|
F#|-----0-----0-2---|---2---2p0-0-----|-------------0---|-0---0-----0-----|
Db|-------------0---|---0---0-----0---|-------------2---|-2-----------0---|
Ab|-------------0---|---------------0-|-3-----------0---|-2-------------2-|
Eb|-0-----------2---|-3---3-----------|-----------------|-0---------------|

eb|---3-----------2-|---------0---2---|---3-------------|---------2-------|
Bb|-------3-0---0---|-0-------0---0---|-----1-------1---|-----1-----1-----|
F#|-------------2---|---2-----0---0---|-------0---0---0-|---2---2-----2---|
Db|-------------1---|-----1---2-------|---------2-------|-0---------------|
Ab|-3-----------2---|-------2-2-------|-0---------------|-----------------|
Eb|-----------------|---------0-------|-----------------|-----------------|

eb|-----------------|-----------------|---3---------2---|-----------------|
Bb|---0---1h3---3---|---3---3p0-------|-------3-0---1---|---0---1h3-------|
F#|-----0-----0-2---|---2---2p0-0-----|-------------0---|-0---0-----0-----|
Db|-------------0---|---0---0-----0---|-------------2---|-2-----------0---|
Ab|-------------0---|---------------0-|-3-----------0---|-2-------------2-|
Eb|-0-----------2---|-3---3-----------|-----------------|-0---------------|

eb|---3-----------2-|---------0---2---|---3-------------|---------2-------|
Bb|-------3-0---0---|-0-------0---0---|-----1-------1---|-----1-----1-----|
F#|-------------2---|---2-----0---0---|-------0---0---0-|---2---2-----2---|
Db|-------------1---|-----1---2-------|---------2-------|-0-------------0-|
Ab|-3-----------2---|-------2-2-------|-0---------------|-----------------|
Eb|-----------------|---------0-------|-----------------|-----------------|

eb|-----------------|-----------------|-----------------|-----------------|
Bb|---0---1h3---3---|-0---------------|-----------------|-----------------|
F#|-----0-----0-2---|-0---------------|-----------------|-----------------|
Db|-------------0---|-0---------------|-----------------|-----------------|
Ab|-------------0---|-2---------------|-----------------|-----------------|
Eb|-0-----------2---|-3---------------|-----------------|-----------------|

Guitar 2:

eb|---7-----7-------|-----------------|-------------5---|---7-----7-------|
Bb|---8-----8---7---|---8-------------|---8-----8---7---|---8-----8-------|
F#|---7-----7---7---|-7-----7---------|---9-----9---5---|---7-----7-------|
Db|---9-----9---7---|-9-------9-------|---9-----9---5---|---9-----9-------|
Ab|-7-----7-----9---|-10------10------|-----------------|-7-----7---------|
Eb|-----------------|-----------------|-8-----8---------|-----------------|

eb|-----------------|-----------------|-----------------|-----------5-----|
Bb|---8-----8-----10|---------8---7---|---8-----8---8---|---7-----7---7---|
F#|---9-----9---8---|---8-----7---7---|---5-----5---5---|---5-----5-------|
Db|---9-----9---7---|-----7---9---7---|---5-----5---5---|---7-----7-------|
Ab|-------------9---|---------7---9---|-7-----7-----7---|-5-----5---------|
Eb|-8-----8-----7---|-----------------|-----------------|-----------------|

eb|-------7---7---7-|---7-7-7---------|-----------------|-----------------|
Bb|-8-7---7---7---8-|---8-7-7-7-7-----|-8-----8-8-------|-7-----7-7-------|
F#|-9---9-7---7-#-9-|---9-7-7-7-7-9---|-7---#-7-7---#---|-7---#-7-7---#---|
Db|-------------#---|---------9-9-10--|-9---#-9-9---#---|-9---#-9-9---#---|
Ab|-----------------|-----------------|-7-----7-7-------|-10----1010------|
Eb|-----------------|-----------------|-----------------|-----------------|

eb|-----------------|-----------------|-----------------|-----------------|
Bb|-7-----7-7-------|-5---------------|-8-----8-8-------|-7-----7-7-------|
F#|-5---#-5-5---#---|---5-----#---5---|-7---#-7-7---#---|-7---#-7-7-------|
Db|-7---#-7-7---#---|-----9---#-----7-|-9---#-9-9---#---|-9---#-9-9-------|
Ab|-0-----0-0-------|-------7---6-----|-7-----7-7-------|-10----1010------|
Eb|-----------------|-----------------|-----------------|-----------------|

eb|-----------------|-----------------|-----------------|-----------------|
Bb|-7-----7-7-------|-5---------------|-----------------|-----------------|
F#|-5---#-5-5---#---|---5-----#---5---|-#---------------|-----------------|
Db|-7---#-7-7---#---|-----9---#-----7-|-#---------------|-----------------|
Ab|-0-----0-0-------|-------7---6-----|-----------------|-----------------|
Eb|-----------------|-----------------|-----------------|-----------------|

eb|---7-----7-------|-----------------|---3-----3---5---|-----------------|
Bb|---8-----8---7---|---3---3-0-------|---5-----5---7---|---0---1h3-------|
F#|---7-----7---7---|---2---2---0-----|---4-----4---5---|-0---0-----0-----|
Db|---9-----9---7---|---0---0-----0---|-------------5---|-2-----------0---|
Ab|-7-----7-----9---|---------------0-|-3----3----------|-2-------------2-|
Eb|-----------------|-3---3-----------|-----------------|-0---------------|

eb|---3-----3-------|-----------------|-----------------|-----------5-----|
Bb|---5-----5-----10|---------8---7---|---8-----8---8---|---7-----7---7---|
F#|---4-----4---8---|---8-----7---7---|---5-----5---5---|---5-----5-------|
Db|-------------7---|-----7---9---7---|---5-----5---5---|---7-----7-------|
Ab|-3-----3-----9---|---------7---9---|-7-----7-----7---|-5-----5---------|
Eb|-----------------|-----------------|-----------------|-----------------|

eb|---7-----7-------|-----------------|---3-----3---5---|-----------------|
Bb|---8-----8---7---|---3---3-0-------|---5-----5---7---|---0---1h3-------|
F#|---7-----7---7---|---2---2---0-----|---4-----4---5---|-0---0-----0-----|
Db|---9-----9---7---|---0---0-----0---|-------------5---|-2-----------0---|
Ab|-7-----7-----9---|---------------0-|-3----3----------|-2-------------2-|
Eb|-----------------|-3---3-----------|-----------------|-0---------------|

eb|---3-----3-------|-----------------|-----------------|-----------5-----|
Bb|---5-----5-----10|---------8---7---|---8-----8---8---|---7-----7---7---|
F#|---4-----4---8---|---8-----7---7---|---5-----5---5---|---5-----5-------|
Db|-------------7---|-----7---9---7---|---5-----5---5---|---7-----7-------|
Ab|-3-----3-----9---|---------7---9---|-7-----7-----7---|-5-----5---------|
Eb|-----------------|-----------------|-----------------|-----------------|

eb|-------7---7---7-|---7-7-7---------|-----------------|-----------------|
Bb|-8-7---7---7---8-|---8-7-7-7-7-----|-8-----8-8-------|-7-----7-7-------|
F#|-9---9-7---7-#-9-|---9-7-7-7-7-9---|-7---#-7-7---#---|-7---#-7-7---#---|
Db|-------------#---|---------9-9-10--|-9---#-9-9---#---|-9---#-9-9---#---|
Ab|-----------------|-----------------|-7-----7-7-------|-10----1010------|
Eb|-----------------|-----------------|-----------------|-----------------|

eb|-----------------|-----------------|-----------------|-----------------|
Bb|-7-----7-7-------|-5---------------|-8-----8-8-------|-7-----7-7-------|
F#|-5---#-5-5---#---|---5-----#---5---|-7---#-7-7---#---|-7---#-7-7-------|
Db|-7---#-7-7---#---|-----9---#-----7-|-9---#-9-9---#---|-9---#-9-9-------|
Ab|-0-----0-0-------|-------7---6-----|-7-----7-7-------|-10----1010------|
Eb|-----------------|-----------------|-----------------|-----------------|

eb|-----------------|-----------------|-----------------|-----------------|
Bb|-7-----7-7-------|-5---------------|-------------8---|-------------8---|
F#|-5---#-5-5---#---|---5-----#---5---|---------11------|---------11------|
Db|-7---#-7-7---#---|-----9---#-----7-|-9---9-----------|-9---9-----------|
Ab|-0-----0-0-------|-------7---6-----|-----------------|-----------------|
Eb|-----------------|-----------------|-----------------|-----------------|

eb|-----------------|-----------------|-----------------|-----------------|
Bb|-------------8---|---------10------|-------------8---|-------------8---|
F#|---------11------|-9---12------12--|---------11------|---------11------|
Db|-10--10----------|-9---------------|-9---9-----------|-9---9-----------|
Ab|-----------------|-----------------|-----------------|-----------------|
Eb|-----------------|-----------------|-----------------|-----------------|

eb|-----------------|-----------------|
Bb|-------------8---|---------10------|
F#|---------11------|-9---12------12--|
Db|-10--10----------|-9---------------|
Ab|-----------------|-----------------|
Eb|-----------------|-----------------|

eb|-0---------------|-----------------|-------------2---|-0---------------|
Bb|-0---------------|-----------------|-------------1---|-0---------------|
F#|-0---------------|-----------------|-------------0---|-0---------------|
Db|-2---------------|-----------------|-------------2---|-2---------------|
Ab|-2---------------|-----------------|-------------0---|-2---------------|
Eb|-0---------------|-----------------|-----------------|-0---------------|

eb|---3-----------2-|---------0---2---|---3-----3---3---|-----------5-----|
Bb|-------3-0---0---|-0-------0---0---|---1-----1---1---|---7-----7---7---|
F#|-------------2---|---2-----0---0---|---0-----0---0---|---5-----5-------|
Db|-------------1---|-----1---2-------|---2-----2---2---|---7-----7-------|
Ab|-3-----------2---|-------2-2-------|-0-----0---------|-5-----5---------|
Eb|-----------------|---------0-------|-----------------|-----------------|

eb|---7-----7-------|-----------------|---3-----3---5---|-----------------|
Bb|---8-----8---7---|---3---3-0-------|---5-----5---7---|---0---1h3-------|
F#|---7-----7---7---|---2---2---0-----|---4-----4---5---|-0---0-----0-----|
Db|---9-----9---7---|---0---0-----0---|-------------5---|-2-----------0---|
Ab|-7-----7-----9---|---------------0-|-3----3----------|-2-------------2-|
Eb|-----------------|-3---3-----------|-----------------|-0---------------|

eb|---3-----3-------|-----------------|-----------------|-----------5-----|
Bb|---5-----5-----10|---------8---7---|---8-----8---8---|---7-----7---7---|
F#|---4-----4---8---|---8-----7---7---|---5-----5---5---|---5-----5-------|
Db|-------------7---|-----7---9---7---|---5-----5---5---|---7-----7-------|
Ab|-3-----3-----9---|---------7---9---|-7-----7-----7---|-5-----5---------|
Eb|-----------------|-----------------|-----------------|-----------------|

eb|---7-----7-------|-----------------|---3-----3---5---|-----------------|
Bb|---8-----8---7---|---3---3-0-------|---5-----5---7---|---0---1h3-------|
F#|---7-----7---7---|---2---2---0-----|---4-----4---5---|-0---0-----0-----|
Db|---9-----9---7---|---0---0-----0---|-------------5---|-2-----------0---|
Ab|-7-----7-----9---|---------------0-|-3----3----------|-2-------------2-|
Eb|-----------------|-3---3-----------|-----------------|-0---------------|

eb|---3-----3-------|-----------------|-----------------|-----------5-----|
Bb|---5-----5-----10|---------8---7---|---8-----8---8---|---7-----7---7---|
F#|---4-----4---8---|---8-----7---7---|---5-----5---5---|---5-----5-------|
Db|-------------7---|-----7---9---7---|---5-----5---5---|---7-----7-------|
Ab|-3-----3-----9---|---------7---9---|-7-----7-----7---|-5-----5---------|
Eb|-----------------|-----------------|-----------------|-----------------|

eb|---7-----7-------|-----------------|-----------------|-----------------|
Bb|---8-----8---7---|-8---------------|-----------------|-----------------|
F#|---7-----7---7---|-7---------------|-----------------|-----------------|
Db|---9-----9---7---|-9---------------|-----------------|-----------------|
Ab|-7-----7-----9---|-10--------------|-----------------|-----------------|
Eb|-----------------|-----------------|-----------------|-----------------|
Tap to rate this tab
 
# A B C D E F G H I J K L M N O P Q R S T U V W X Y Z