Song name
# A B C D E F G H I J K L M N O P Q R S T U V W X Y Z

Saves The Day - In Reverie tab

Saves The Day
In Reverie
    
Guitar 1: 

Intro:      

       Edom7      Gmaj7/F#       Edom7       Em/G
eb|-2--2--2--2-|-3--3--3--3-|-2--2--2--2-|-3--3--3--3-|
Bb|-3--3--3--3-|-3--3--3--3-|-3--3--3--3-|-5--5--5--5-|
F#|-3--3--3--3-|-4--4--4--4-|-3--3--3--3-|-4--4--4--4-|
Db|-2--2--2--2-|-4--4--4--4-|-2--2--2--2-|-5--5--5--5-|
Ab|------------|------------|------------|------------|
Eb|------------|------------|------------|------------|

Verse:
       Edom7      Gmaj7/F#       Fm         C#dim/G
eb|-2--2--2--2-|-3--3--3--3-|-2--2--2--2-|------------|
Bb|-3--3--3--3-|-3--3--3--3-|-2--2--2--2-|-5--5--5--5-|
F#|-3--3--3--3-|-4--4--4--4-|-2--2--2--2-|-6--6--6--6-|
Db|-2--2--2--2-|-4--4--4--4-|-4--4--4--4-|-5--5--5--5-|
Ab|------------|------------|------------|------------|
Eb|------------|------------|------------|------------|

Chorus:
  Gmaj7   A7      Bm7      Dmaj7   Gmaj7   F#aug7    Dmaj7    C#min7b5
eb|------0--0----2-|-2----5--5-------|--------------5--|-5-------------|
Bb|-3----2--2----3-|-3----7--7----3--|-3----3--3----7--|-7----5--5---5-|
F#|-4----0--0----2-|-2----6--6----4--|-4----3--3----6--|-6----4--4---4-|
Db|-4----2--2----4-|-4----7--7----4--|-4----2--2----7--|-7----5--5---5-|
Ab|-x----0--0----2-|-2----5--5----x--|-x----x--x----5--|-5----4--4---4-|
Eb|-3--------------|--------------3--|-3----2--2-------|---------------|

Intro
Verse

Bridge:
          Gmaj7               A7              Bm7             Dmaj7  
eb|---------2-------|---------0-------|---------2-------|---------5-------|
Bb|-------3---3-----|-------2---2-----|-------3---3-----|-------7---7-----|
F#|-----4-------4---|-----0-------0---|-----2-------2---|-----6-------6---|
Db|---4-----------4-|---2-----------2-|---4-----------4-|---7-----------7-|
Ab|-----------------|-0---------------|-2---------------|-5---------------|
Eb|-3---------------|-----------------|-----------------|-----------------|

         Gmaj7             F#aug7              Dmaj7           C#min7b5
eb|---------2-------|---------0--------|---------5-------|-----------------|
Bb|-------3---3-----|-----------3------|-------7---7-----|---------5-------|
F#|-----4-------4---|-----3-------3----|-----6-------6---|-----4-----4-----|
Db|---4-----------4-|---2---2-------2--|---7-----------7-|---5---5-----5---|
Ab|-----------------|------------------|-5---------------|-4-------------4-|
Eb|-3---------------|-2----------------|-----------------|-----------------|

Bridge ends on Dmaj7

Chorus

Ending:
   Gmaj7     F7    Dmaj7    C#min7b5 
eb|----------------5-|-5-------------|
Bb|-3------3--3----7-|-7--5--5---5---|
F#|-4------3--3----6-|-6--4--4---4---|
Db|-4------2--2----7-|-7--5--5---5---|
Ab|-x------x--x----5-|-5--4--4---4---|
Eb|-3------2--2------|---------------|

End on Dmaj7

Guitar 2:

Intro:
eb|-0-|-0-0-0-0-0--0--0--0--|-0--0--0--0--0--0--0--0-|-0-0-0-0-0--0--0--0--|
Bb|-5-|-7-7-7-7-11-11-11-11-|-12-12-12-12-12-12-12-5-|-7-7-7-7-11-11-11-12-|
F#|---|---------------------|------------------------|---------------------|
Db|---|---------------------|------------------------|---------------------|
Ab|---|---------------------|------------------------|---------------------|
Eb|---|---------------------|------------------------|---------------------|

eb|-0-0-0-0-0-0-0-0-|-------------10-10-10-10-|-------------------------|
Bb|-8-8-8-8-5-5-5-5-|-------------x--x--x--x--|-12-12-12-12-12-12-12-12-|
F#|-----------------|-11-11-11-11-11-11-11-11-|-11-11-11-11-11-11-11-11-|
Db|-----------------|-x--x--x--x--x--x--x--x--|-x--x--x--x--x--x--x--x--|
Ab|-----------------|-9--9--9--9--9--9--9--9--|-9--9--9--9--9--9--9--9--|
Eb|-----------------|-------------------------|-------------------------|

Verse:
eb|-------------10-10-10-10-|-------------------------|
Bb|-------------x--x--x--x--|-12-12-12-12-12-12-12-12-|
F#|-11-11-11-11-11-11-11-11-|-11-11-11-11-11-11-11-11-|
Db|-x--x--x--x--x--x--x--x--|-x--x--x--x--x--x--x--x--|
Ab|-9--9--9--9--9--9--9--9--|-9--9--9--9--9--9--9--9--|
Eb|-------------------------|-------------------------|

eb|-------------------------|-------------------------|
Bb|-10-10-10-10-------------|-10-10-10-10-10-10-10-10-|
F#|-11-11-11-11-11-11-11-11-|-9--9--9--9--9--9--9--9--|
Db|-x--x--x--x--12-12-12-12-|-x--x--x--x--x--x--x--x--|
Ab|-9--9--9--9--9--9--9--9--|-9--9--9--9--9--9--9--9--|
Eb|-------------------------|-------------------------|

eb|-------------10-10-10-10-|-------------------------|
Bb|-------------x--x--x--x--|-12-12-12-12-12-12-12-12-|
F#|-11-11-11-11-11-11-11-11-|-11-11-11-11-11-11-11-11-|
Db|-x--x--x--x--x--x--x--x--|-x--x--x--x--x--x--x--x--|
Ab|-9--9--9--9--9--9--9--9--|-9--9--9--9--9--9--9--9--|
Eb|-------------------------|-------------------------|

eb|-------------------------|----9--------------------|
Bb|-10-10-10-10-------------|-------8-----------------|
F#|-11-11-11-11-11-11-11-11-|-9--------9--#-/6--4~/2--|
Db|-x--x--x--x--12-12-12-12-|-------------#-/7--5~/4--|
Ab|-9--9--9--9--9--9--9--9--|-------------------------|
Eb|-------------------------|-------------------------|

Chorus:
  Gmaj7   A7      Bm7      Dmaj7   Gmaj7   F#aug7    Dmaj7    C#min7b5
eb|------0--0----2-|-2----5--5-------|--------------5--|-5-------------|
Bb|-3----2--2----3-|-3----7--7----3--|-3----3--3----7--|-7----5--5---5-|
F#|-4----0--0----2-|-2----6--6----4--|-4----3--3----6--|-6----4--4---4-|
Db|-4----2--2----4-|-4----7--7----4--|-4----2--2----7--|-7----5--5---5-|
Ab|-x----0--0----2-|-2----5--5----x--|-x----x--x----5--|-5----4--4---4-|
Eb|-3--------------|--------------3--|-3----2--2-------|---------------|

Intro
Verse
Chorus

Outro:

eb|------------------------------------------------------------|
Bb|------------------------------------------------------------|
F#|-11----11----11----11--11----11--11-11-11-11-12-12-12-12-12-|
Db|-x-----x-----x-----x---x-----x---x--x--x--x--x--x--x--x--x--|
Ab|-9-----9-----9-----9---9-----9----9--9--9--9-10-10-10-10-10-|
Eb||-----------------------------------------------------------|


eb|---------9/10-9--------9/10-9-------9/10-9--------10-9-7----9-|
Bb|-7/8-7-----------7/8-7--------7/8-7--------7/8-10--------10---|
F#|--------------------------------------------------------------|
Db|--------------------------------------------------------------|
Ab|--------------------------------------------------------------|
Eb|--------------------------------------------------------------|

Tap to rate this tab
 
# A B C D E F G H I J K L M N O P Q R S T U V W X Y Z