Song name
# A B C D E F G H I J K L M N O P Q R S T U V W X Y Z

Saves The Day - What Went Wrong tab

Saves the Day- What Went Wrong

Guitar 1:

Intro/verse:
eb|-------------|-------------|-------------|-------------|
Bb|-------------|-------------|-------------|-------------|
F#|-------------|-------------|-------------|-------------|
Db|-2-2-2-0-2-0-|-3-3-3-------|-------------|-------------|
Ab|-3-3-3-3-3-3-|-0-0-0-2-2-2-|-3-3-3-3-3-3-|-5-5-5-5-5-5-|
Eb|-------------|-------3-3-3-|-2-2-2-2-2-2-|-1-1-1-1-1-1-|

Chorus Part 1:
        Am            Cmaj7       F#min7b5
eb|-0-0-0-0-0-0-|-0-0-0-0-0-0-|-5-5-5-5-5-5-|
Bb|-1-1-1-1-1-1-|-0-0-0-0-0-0-|-5-5-5-5-5-5-|
F#|-2-2-2-2-2-2-|-0-0-0-0-0-0-|-5-5-5-5-5-5-|
Db|-2-2-2-2-2-2-|-2-2-2-2-2-2-|-4-4-4-4-4-4-|
Ab|-0-0-0-0-0-0-|-3-3-3-3-3-3-|-------------|
Eb|-------------|-------------|-------------|

        Fmaj7        Fdim7
eb|-5-5-5-5-5-5-|-4-4-4-4-4-4-|
Bb|-5-5-5-5-5-5-|-3-3-3-3-3-3-|
F#|-5-5-5-5-5-5-|-4-4-4-4-4-4-|
Db|-3-3-3-3-3-3-|-3-3-3-3-3-3-|
Ab|-------------|-------------|
Eb|-------------|-------------|

Verse
Chorus 1

Chorus Part 2:

         c           Cmaj7        F#min7b5
eb|-0-0-0-0-0-0-|-0-0-0-0-0-0-|-5-5-5-5-5-5-|
Bb|-1-1-1-1-1-1-|-0-0-0-0-0-0-|-5-5-5-5-5-5-|
F#|-0-0-0-0-0-0-|-0-0-0-0-0-0-|-5-5-5-5-5-5-|
Db|-2-2-2-2-2-2-|-2-2-2-2-2-2-|-4-4-4-4-4-4-|
Ab|-3-3-3-3-3-3-|-3-3-3-3-3-3-|-------------|
Eb|-------------|-------------|-------------|

        Fmaj7        Fdim7
eb|-5-5-5-5-5-5-|-4-4-4-4-4-4-|
Bb|-5-5-5-5-5-5-|-3-3-3-3-3-3-|
F#|-5-5-5-5-5-5-|-4-4-4-4-4-4-|
Db|-3-3-3-3-3-3-|-3-3-3-3-3-3-| 
Ab|-------------|-------------| 
Eb|-------------|-------------| 

Bridge:
        C             F             Am            E
eb|-------------|-------------|-------------|-------------|
Bb|-1-1-1-1-1-1-|-1-1-1-1-1-1-|-1-1-1-1-1-1-|-0-0-0-0-0-0-|
F#|-0-0-0-0-0-0-|-2-2-2-2-2-2-|-2-2-2-2-2-2-|-1-1-1-1-1-1-|
Db|-2-2-2-2-2-2-|-3-3-3-3-3-3-|-2-2-2-2-2-2-|-2-2-2-2-2-2-|
Ab|-3-3-3-3-3-3-|-3-3-3-3-3-3-|-0-0-0-0-0-0-|-2-2-2-2-2-2-|
Eb|-------------|-1-1-1-1-1-1-|-------------|-0-0-0-0-0-0-|

        F                           G         G#      A#
eb|-------------|-------------|-------------|-------------|
Bb|-1-1-1-1-1-1-|-1-1-1-1-1-1-|-3-3-3-3-3-3-|-------------|
F#|-2-2-2-2-2-2-|-2-2-2-2-2-2-|-4-4-4-4-4-4-|-5-5-5-7-7-7-|
Db|-3-3-3-3-3-3-|-3-3-3-3-3-3-|-5-5-5-5-5-5-|-6-6-6-8-8-8-|
Ab|-3-3-3-3-3-3-|-3-3-3-3-3-3-|-5-5-5-5-5-5-|-6-6-6-8-8-8-|
Eb|-1-1-1-1-1-1-|-1-1-1-1-1-1-|-3-3-3-3-3-3-|-4-4-4-6-6-6-|

        C
eb|----------|
Bb|----------|
F#|-9--------|
Db|-10-------|
Ab|-10-------|
Eb|-8--------|

Verse
Chorus Part 1
Chorus Part 2
Bridge
Verse


Guitar 2:

Intro:
        
eb|--------0------|
Bb|-----1-----1---|
F#|--2----------0-|
Db|---------------|
Ab|---------------|
Eb|---------------|

eb|-------------|-------------|-------------|---|
Bb|-------------|-------------|-------5-----|-3-|
F#|-----------0-|---0-----4---|---5-----5---|-5-|
Db|---2---0h2---|-3---3/5---5-|-4---4-----4-|-3-|
Ab|-3---3-------|-------------|-------------|---|
Eb|-------------|-------------|-------------|---|

Verse:
eb|-------------|-------------|-------------|-------------|
Bb|-------------|-------------|-------------|-------------|
F#|-------------|-------------|-------------|-------------|
Db|-2-2-2-0-2-0-|-3-3-3-------|-------------|-------------|
Ab|-3-3-3-3-3-3-|-0-0-0-2-2-2-|-3-3-3-3-3-3-|-5-5-5-5-5-5-|
Eb|-------------|-------3-3-3-|-2-2-2-2-2-2-|-1-1-1-1-1-1-|

Chorus Part 1:

       Am      Cmaj7      F#min7b5       Fmaj7       Fdim7
eb|-5-5-5-5-|---------|-------------|-------------|---------|
Bb|-5-5-5-5-|-8-8-8-8-|-10-10-10-10-|-10-10-10-10-|-8-8-8-8-|
F#|-5-5-5-5-|-9-9-9-9-|-9--9--9--9--|-9--9--9--9--|-7-7-7-7-|
Db|-5-5-5-5-|-9-9-9-9-|-10-10-10-10-|-10-10-10-10-|-9-9-9-9-|
Ab|-0-0-0-0-|-x-x-x-x-|-9--9--9--9--|-8--8--8--8--|-8-8-8-8-|
Eb|---------|-8-8-8-8-|-------------|-------------|---------|

Verse
Chorus Part 1

Chrous Part 2:
eb|-8-----8-----|-8-----8------|-8-----8------|-8-----8------|
Bb|---8-----8---|---8-----8----|---8-----8----|---8-----8----|
F#|-----9-----9-|-----9-----9--|-----9-----9--|-----9-----9--|
Db|-------------|--------------|--------------|--------------|
Ab|-------------|--------------|--------------|--------------|
Eb|-------------|--------------|--------------|--------------|

eb|-7-----7-----|-7-----7------|-7-----7------|-7-----7------|
Bb|---8-----8---|---8-----8----|---8-----8----|---8-----8----|
F#|-----9-----9-|-----9-----9--|-----9-----9--|-----9-----9--|
Db|-------------|--------------|--------------|--------------|
Ab|-------------|--------------|--------------|--------------|
Eb|-------------|--------------|--------------|--------------|

eb|-8------8------|-8------8------|-8------8------|--------7-----|
Bb|---10-----10---|---10-----10---|---10-----10---|---9------9---|
F#|------9------9-|------9------9-|------9------9-|------7-----7-|
Db|---------------|---------------|---------------|-9------------|
Ab|---------------|---------------|---------------|--------------|
Eb|---------------|---------------|---------------|--------------|

Bridge:
         C             F             Am            E
eb|-------------|-------------|-------------|-------------|
Bb|-------1-----|-------1-----|-------1-----|-------0-----|
F#|-----0---0---|-----2---2---|-----2---2---|-----1---1---|
Db|---2-------2-|---3-------3-|---2-------2-|---2-------2-|
Ab|-3-----------|-3-----------|-0-----------|-2-----------|
Eb|-------------|-------------|-------------|-------------|

         F                           G         G#    A#
eb|-------------|-------------|-------------|-------------|
Bb|-------1-----|-------1-----|-3-3-3-3-3-3-|-------------|
F#|-----2---2---|-----2---2---|-4-4-4-4-4-4-|-5-5-5-7-7-7-|
Db|---3-------3-|---3-------3-|-5-5-5-5-5-5-|-6-6-6-8-8-8-|
Ab|-3-----------|-3-----------|-5-5-5-5-5-5-|-6-6-6-8-8-8-|
Eb|-------------|-------------|-3-3-3-3-3-3-|-4-4-4-6-6-6-|

    C
eb|----|
Bb|----|
F#|-9--|
Db|-10-|
Ab|-10-|
Eb|-8--|

Intro
Verse
Chorus Part 1
Chorus Part 2
Bridge

Outro:
eb|-------------|-------------|-------------|-------------|
Bb|-------------|-------------|-------5-----|-------3-----|
F#|-----------0-|---0-----4---|---5-----5---|---5-----5---|
Db|---2---0h2---|-3---3/5---5-|-4---4-----4-|-3---3-----3-|
Ab|-3---3-------|-------------|-------------|-------------|
Eb|-------------|-------------|-------------|-------------|

eb|-------------|-------------|-------------|-------------|
Bb|-------------|-------------|-------5-----|-------3-----|
F#|-----------0-|---0-----4---|---5-----5---|---5-----5---|
Db|---2---0h2---|-3---3/5---5-|-4---4-----4-|-3---3-----3-|
Ab|-3---3-------|-------------|-------------|-------------|
Eb|-------------|-------------|-------------|-------------|

eb|-------------|-------------|-------------|---|
Bb|-------------|-------------|-------5-----|-3-|
F#|-----------0-|---0-----4---|---5-----5---|-5-|
Db|---2---0h2---|-3---3/5---5-|-4---4-----4-|-3-|
Ab|-3---3-------|-------------|-------------|---|
Eb|-------------|-------------|-------------|---|
Tap to rate this tab
# A B C D E F G H I J K L M N O P Q R S T U V W X Y Z