Song name
# A B C D E F G H I J K L M N O P Q R S T U V W X Y Z

Saves The Day - Wednesday The Third tab

Wednesday The Third 

Guitar 1:

Intro/Verse Part A:
eb|---------------|--------------|
Bb|---0-------0---|--------------|
F#|---------------|---0----------|
Db|---------------|----------4---|
Ab|-3---3--3----3-|--------------|
Eb|---------------|-0---0--3---3-|

Verse Part B:
eb|---------------|--------------|--------------|-------------|
Bb|---0-------0---|--------------|--------------|-------------|
F#|---------------|-0------------|---0------0---|---0---2---2-|
Db|---------------|---4-----4----|--------------|-2---2---1---|
Ab|-3---3--3----3-|-----5-----5--|-4---4--3---3-|-------------|
Eb|---------------|-------3------|--------------|-------------|

Chorus Part A:
      G     Gmaj7         C#m7b5      cmaj7
eb|-------|-------|-0--0--0-|-0-0-0-|-0-0-0-|
Bb|-0-0-0-|-3-3-3-|-0--0--0-|-0-0-0-|-0-0-0-|
F#|-0-0-0-|-4-4-4-|-0--0--0-|-0-0-0-|-0-0-0-|
Db|-0-0-0-|-4-4-4-|-2--2--2-|-2-2-2-|-2-2-2-|
Ab|-2-2-2-|-x-x-x-|-4--4--4-|-4-4-4-|-3-3-3-|
Eb|-3-3-3-|-3-3-3-|---------|-------|-------|

      G     Gmaj7      Em
eb|-------|-------|-0--------|----------------|
Bb|-0-0-0-|-3-3-3-|-0--------|----------------|
F#|-0-0-0-|-4-4-4-|-0--0---0-|-----0------0---|
Db|-0-0-0-|-4-4-4-|-2----4---|-4/5---5/7----0-|
Ab|-2-2-2-|-x-x-x-|-2--------|----------------|
Eb|-3-3-3-|-3-3-3-|-0--------|----------------|

Verse

Chorus Part B:

      G     Gmaj7    C#m7b5   cmaj7
eb|-------|-------|-0--0--0-|-0-0-0-|
Bb|-0-0-0-|-3-3-3-|-0--0--0-|-0-0-0-|
F#|-0-0-0-|-4-4-4-|-0--0--0-|-0-0-0-|
Db|-0-0-0-|-4-4-4-|-2--2--2-|-2-2-2-|
Ab|-2-2-2-|-x-x-x-|-4--4--4-|-3-3-3-|
Eb|-3-3-3-|-3-3-3-|---------|-------|

Verse A & B (Under Solo)

Outro:                            G     Gmaj7   Em
eb|-------------|-------------|-------|-------|-0-|
Bb|-------------|-------------|-0-0-0-|-3-3-3-|-0-|
F#|---0-----0---|---------0---|-0-0-0-|-4-4-4-|-0-|
Db|-------------|---4---------|-0-0-0-|-4-4-4-|-2-|
Ab|-4---4-3---3-|-------4---4-|-2-2-2-|-x-x-x-|-2-|
Eb|-------------|-3---3-------|-3-3-3-|-3-3-3-|-0-|

Guitar 2:

Intro:
eb|-------|-------------|-------|--------------|
Bb|-------|-------------|-------|--------------|
F#|-4^-4^-|---0---------|-4^-4^-|---0----------|
Db|-------|---------4---|-------|----------4---|
Ab|-------|-------------|-------|--------------|
Eb|-------|-0---0-3---3-|-------|-0---0--3---3-|

Verse:
eb|-------|---------0---|-------|---------0---|
Bb|-------|-----0-3---0-|-------|-----0-3---0-|
F#|-4^-4^-|---0---------|-4^-4^-|---0---------|
Db|-------|-------------|-------|-------------|
Ab|-------|-------------|-------|-------------|
Eb|-------|-0-----------|-------|-0-----------|

eb|-------|-------------|-------------|-------------|
Bb|-------|-------------|-----0-----0-|-------------|
F#|-4^-4^-|-------------|---0-----0---|---0---------|
Db|-------|-5-4-5-5-4-5-|-------------|-2---2-1---1-|
Ab|-------|-------------|-4-----3-----|---------2---|
Eb|-------|-------------|-------------|-------------|

eb|-------|---------0---|-------|---------0---|
Bb|-------|-----0-3---0-|-------|-----0-3---0-|
F#|-4^-4^-|---0---------|-4^-4^-|---0---------|
Db|-------|-------------|-------|-------------|
Ab|-------|-------------|-------|-------------|
Eb|-------|-0-----------|-------|-0-----------|

eb|-------|--------------|-------------------|-------------------|
Bb|-------|----------7---|----12-------12----|-------------12----|
F#|-4^-4^-|-----7------7-|-------12-------12-|----12----------14-|
Db|-------|-5-4---5------|-11-------10-------|-14----14-13-------|
Ab|-------|--------------|-------------------|-------------------|
Eb|-------|--------------|-------------------|-------------------|

Chorus Part A:
      G     Gmaj7      C#m7b5       cmaj7
eb|-------|-------|-------|-------|-------|
Bb|-------|-3-3-3-|-5-5-5-|-5-5-5-|-5-5-5-|
F#|-4-4-4-|-4-4-4-|-4-4-4-|-4-4-4-|-4-4-4-|
Db|-5-5-5-|-4-4-4-|-5-5-5-|-5-5-5-|-5-5-5-|
Ab|-5-5-5-|-x-x-x-|-4-4-4-|-4-4-4-|-3-3-3-|
Eb|-3-3-3-|-3-3-3-|-------|-------|-------|

      G     Gmaj7   Em
eb|-------|-------|-0-|
Bb|-------|-3-3-3-|-0-|
F#|-4-4-4-|-4-4-4-|-0-|
Db|-5-5-5-|-4-4-4-|-2-|
Ab|-5-5-5-|-x-x-x-|-2-|
Eb|-3-3-3-|-3-3-3-|-0-|

Verse

Chorus Part B:
eb|-------3-----|-------2-----|-------------|-------------|-------3-----|-------2-----|
Bb|-----3---3---|-----3---3---|-------5-----|-------5-----|-----3---3---|-----3---3---|
F#|---4-------4-|---4-------4-|-----4---4---|-----4---4---|---4-------4-|---4-------4-|
Db|-5-----------|-4-----------|---5-------5-|---5-------5-|-5-----------|-4-----------|
Ab|-------------|-------------|-4-----------|-3-----------|-------------|-------------|
Eb|-------------|-------------|-------------|-------------|-------------|-------------|

eb|-------------|------------------|-------3-----|-------2-----|-0-|
Bb|-------5-----|-12-------12------|-----3---3---|-----3---3---|-0-|
F#|-----4---4---|----12-------12---|---4-------4-|---4-------4-|-0-|
Db|---5-------5-|-------9--------9-|-5-----------|-4-----------|-2-|
Ab|-4-----------|------------------|-------------|-------------|-2-|
Eb|-------------|------------------|-------------|-------------|-0-|

Solo:
eb|----------------|--------------|--------------|---------------|
Bb|----------------|--------------|--------------|---------------|
F#|/9-7------------|--------------|/9-7----------|---------------|
Db|-----10-9--7--9-|-9--------7-9-|-----10-9-7-9-|-9--------7--9-|
Ab|----------------|---7-9-10-----|--------------|---7-9-10------|
Eb|----------------|--------------|--------------|---------------|

eb|--------------|--------------|-------------|---------|
Bb|--------------|----8---------|-------------|---------|
F#|/9-7----------|-11---11------|-----9--7----|---------|
Db|-----10-9---9-|---------9--7-|-------------|-9/7/9---|
Ab|--------------|--------------|-10-------10-|---------|
Eb|--------------|--------------|-------------|---------|

Last Verse/Outro:
eb|-------|---------0---|-------|---------0---|
Bb|-------|-----0-3---0-|-------|-----0-3---0-|
F#|-4^-4^-|---0---------|-4^-4^-|---0---------|
Db|-------|-------------|-------|-------------|
Ab|-------|-------------|-------|-------------|
Eb|-------|-0-----------|-------|-0-----------|

eb|-------|-------------|-------------|-------------|
Bb|-------|-------------|-----0-----0-|-------------|
F#|-4^-4^-|-------------|---0-----0---|---0---------|
Db|-------|-5-4-5-5-4-5-|-------------|-2---2-1---1-|
Ab|-------|-------------|-4-----3-----|---------2---|
Eb|-------|-------------|-------------|-------------|

eb|-------------|-------------|--------------|-------------|
Bb|-----0-----0-|-------------|------0-----0-|-------------|
F#|---0-----0---|---0---------|---0------0---|---------0---|
Db|-------------|-2---2-1---1-|--------------|-5-4-5-------|
Ab|-4-----3-----|---------2---|-4------3-----|-------4---4-|
Eb|-------------|-------------|--------------|-------------|

                                       G                   Gmaj7
eb|-------------|-------------|----------3--------|----------2--------|
Bb|-------------|-------0-----|-------------3-----|-3--3--3-----3-----|
F#|---0-----0---|---2-----2---|-4--4--4--------5--|-4--4--4--------4--|
Db|-2---2-2---2-|-1---1-----1-|-5--5--5-----------|-4--4--4-----------|
Ab|-------------|-------------|-5--5--5-----------|-x--x--x-----------|
Eb|-------------|-------------|-3--3--3-----------|-3--3--3-----------|

            Em
eb|-0-----------------|
Bb|-0-----------------|
F#|-0-----------------|
Db|-2-----------------|
Ab|-2-----------------|
Eb|-0-----------------|
Tap to rate this tab
 
# A B C D E F G H I J K L M N O P Q R S T U V W X Y Z