Song name
# A B C D E F G H I J K L M N O P Q R S T U V W X Y Z

Saves The Day - Monkey tab

Saves The Day  Monkey

Guitar 1:

Intro:
eb|---------|---------|
Bb|-------3-|-------3-|
F#|---2h3---|---2h3---|
Db|---------|---------|
Ab|---------|---------|
Eb|-3-------|-2-------|

Verse A:
eb|-------------------------------------------------|
Bb|-------------------------------------------------|
F#|-3-3-3-3-3-3-3-3-3-3-3-3-3-3-3-3-3-3-3-3-3-3-3-3-|
Db|-3-3-3-3-4-4-4-4-5-5-5-5-4-4-4-4-3-3-3-3-2-2-1-1-|
Ab|-------------------------------------------------|
Eb|-------------------------------------------------|

Verse B:
eb|---------|---------|---------|-----------|--------|--------|--------|----|
Bb|-------3-|-------3-|-------3-|-------1---|-----4--|-----3--|-----4--|-3-4|
F#|---2h3---|---2h3---|---0h3---|---0h3---3-|-------3|-------5|-------3|-5-5|
Db|---------|---------|---------|-----------|---5----|---4----|---5----|-4-3|
Ab|---------|---------|---------|-----------|-3------|-5------|-6------|-5-3|
Eb|-3-------|-2-------|-1-------|-0---------|--------|--------|--------|----|

Verse A
Verse B

Chorus
eb|-----------------|-----------------|-----------------|-----------------|
Bb|---------3---1---|---------3---1---|---------3---1---|-----------------|
F#|-----------------|-----------------|-----------------|-2---3-----------|
Db|-----3-----------|-----3-----------|-----3-----------|-1-------3---5---|
Ab|-1---------------|-1---------------|-1---------------|-3-------5---5---|
Eb|-----------------|-----------------|-----------------|-1-------3-------|

eb|-----------------|-----------------|-----------------|-----------------|
Bb|-8-----8-8---9---|-10------10------|-10------10------|-11--10----------|
F#|-8-----8-8---9---|-10------10------|-10------10------|-10--10--12--10--|
Db|-8-----8-8---9---|-10--10--10--10--|-10------10------|-12--12--12--12--|
Ab|-6-----6-6---7---|-8---8---8---8---|-x-------x-------|-10------10--10--|
Eb|-----------------|-----------------|-10--10--10--10--|-----------------|

eb|-----------------|-----------------|-----------------|-----------------|
Bb|-8-------8-------|-----------------|-8-----8-8---9---|-10------10------|
F#|-8-------8-------|-7-------7-------|-8-----8-8---9---|-10------10------|
Db|-8---8---8---8---|-8-------8-------|-8-----8-8---9---|-10--10--10--10--|
Ab|-6---6---6---6---|-8---8---8---8---|-6-----6-6---7---|-8---8---8---8---|
Eb|-----------------|-6---6---6---6---|-----------------|-----------------|

eb|-----------------|-----------------|-----------------|-----------------|
Bb|-10------10------|-11--10----------|-8-------8-------|-----------------|
F#|-10------10------|-10--10--12--10--|-8-------8-------|-7-------7-------|
Db|-10------10------|-12--12--12--12--|-8---8---8---8---|-8-------8-------|
Ab|-x-------x-------|-10------10--10--|-6---6---6---6---|-8---8---8---8---|
Eb|-10--10--10--10--|-----------------|-----------------|-6---6---6---6---|

eb|-----------------|-----------------|-----------------|---------|
Bb|-----------------|-----------------|-----------------|-3---4---|
F#|------3----------|-------5---------|-------3---------|-5---5---|
Db|-----------------|-----------------|-1-----------1---|-4---3---|
Ab|-3-----------3---|-5-----------5---|-----------------|-5---3---|
Eb|-----------------|-----------------|-----------------|---------|

Verse
Chorus

Ending:
eb|-----------------|-----------------|-6--|
Bb|-8-------8-------|-----------------|-4--|
F#|-8-------8-------|-7-------7-------|-3--|
Db|-8---8---8---8---|-8-------8-------|-5--|
Ab|-6---6---6---6---|-8---8---8---8---|-3--|
Eb|-----------------|-6---6---6---6---|----|

Guitar 2:

Verse A:
eb|-----------------|
Bb|-11--11--11--11--|
F#|-----------------|
Db|-8---8---8---8---|
Ab|-----------------| (repeat over Verse A)
Eb|-----------------|

Verse B:
eb|---|---|---|---|-3--|----|-3-|-----|------|
Bb|---|---|---|---|-4--|-3--|-4-|-3-4-|-3----|
F#|---|---|---|---|-3--|-5--|-3-|-5-5-|-3----|
Db|---|---|---|---|-5--|-4--|-5-|-4-3-|-3----|
Ab|---|---|---|---|-3--|-5--|-6-|-5-3-|-1----|
Eb|-3-|-2-|-1-|-0-|----|----|---|-----|------|

Chorus:
eb|-3-------3---4---|-5-|-10-|---------|-3-|-6-|
Bb|-4-------4---5---|-6-|-10-|-3-------|-4-|-6-|
F#|-3-------3---4---|-5-|-10-|-3-2-0---|-3-|-7-|
Db|-5-------5---6---|-7-|-12-|-0-----3-|-5-|-8-|
Ab|-6-------6---7---|-8-|-12-|-x-------|-6-|-8-|
Eb|-----------------|---|-10-|-3-------|---|-6-|

eb|-3--3--4-|-5-|-10-|---------|-3-|-6-|-3-|---|-3-|-----|
Bb|-4--4--5-|-6-|-10-|-3-------|-4-|-6-|-4-|-3-|-4-|-3-4-|
F#|-3--3--4-|-5-|-10-|-3-2-0---|-3-|-7-|-3-|-5-|-3-|-5-5-|
Db|-5--5--6-|-7-|-12-|-0-----3-|-5-|-8-|-5-|-4-|-5-|-4-3-|
Ab|-6--6--7-|-8-|-12-|-x-------|-6-|-8-|-3-|-5-|-6-|-5-3-|
Eb|---------|---|-10-|-3-------|---|-6-|---|---|---|-----|

Solo:
eb|------------------------------------------------------------------------|
Bb|-8-6------8-6----------6---------------3--------------------------------|
F#|-----8--7-----8--7-5-7---8-7------3-5-----------------------------------|
Db|------------------------------8-5---------------------------------------|
Ab|-----------------------------------------3-5--3-53----3-5-3-5--3-53-1--1|
Eb|---------------------------------------------------2--------------------|

Verse A

Verse B:
eb|---------|---|-------|-------|     eb|-3--|----|
Bb|---------|---|-------|-------|     Bb|-4--|-3--|
F#|---------|---|-------|-------|     F#|-3--|-5--|
Db|---------|---|-------|-------|     Db|-5--|-4--|
Ab|---------|---|-------|-------| x3  Ab|-3--|-5--|
Eb~~3---6/~~~~2---6/~~1---6/~~0-|     Eb|----|----|

Chorus 

Ending:
eb|-3---------------|-6---------------|-10--------------|-----------------|
Bb|-4---------------|-6---------------|-8---------------|-----------------|
F#|-3---------------|-7---------------|-8---------------|-----------------|
Db|-5---------------|-8---------------|-8---------------|-----------------|
Ab|-6---------------|-8---------------|-----------------|-----------------|
Eb|-----------------|-6---------------|-----------------|-----------------|
Tap to rate this tab
 
# A B C D E F G H I J K L M N O P Q R S T U V W X Y Z