Song name
# A B C D E F G H I J K L M N O P Q R S T U V W X Y Z

Saves The Day - Freakish tab

Saves The Day  Freakish 

Guitar 1:
e|-----------------|-----------------|-----------------|-----------------|
B|-----------------|-----------------|-----------------|-----------------|
G|---------4-------|-----------------|---------4-------|-----------------|
D|-----6-----------|-----------------|-----4-----------|-----------------|
A|-6---------------|-----------------|-7---------------|-----------------|
E|-----------------|-----------------|-----------------|-----------------|

e|-----------------|-----------------|-----------------|-----------------|
B|---------4-------|-----------------|-----------------|-----------------|
G|-----6-----------|-----------------|---------3-------|-----------------|
D|-----------------|-----------------|-----2-----------|-----------------|
A|-----------------|-----------------|-----------------|-----------------|
E|-7---------------|-----------------|-2---------------|-----------------|

e|-----------------|-----------------|-----------------|-----------------|
B|-----------------|-----------------|-----------------|-----------------|
G|---------4-------|-----------------|---------4-------|-----------------|
D|-----6-----------|-----------------|-----4-----------|-----------------|
A|-6---------------|-----------------|-7---------------|-----------------|
E|-----------------|-----------------|-----------------|-----------------|

e|-----------------|-----------------|-----------------|-----------------|
B|---------4-------|-----------------|-----------------|-----------------|
G|-----6-----------|-----------------|---------3-------|-------------x-x-|
D|-----------------|-----------------|-----2-----------|-------------x-x-|
A|-----------------|-----------------|-----------------|-------------x-x-|
E|-7---------------|-----------------|-2---------------|-------------x-x-|

e|-----------------|-----------------|-----------------|-----------------|
B|-----------------|-----------------|-----------------|-----------------|
G|-4-----------4-4-|-4-----------4-4-|-4-----------4-4-|-----------------|
D|-1-----------1-1-|-2-----------2-x-|-x-----------x-x-|---------------x-|
A|-----------------|---------------x-|-2-----------2-2-|-1-1---1h2-2-2-x-|
E|-----------------|---------------x-|-4-----------4-4-|-2-2---2---2-2-x-|

e|-----------------|-----------------|-----------------|-----------------|
B|-----------------|-----------------|-----------------|-----------------|
G|-4-----------4-4-|-4-----------4-4-|-4-----------4-4-|-4-4-4-4-4-4-4-4-|
D|-1-----------1-1-|-2-----------2-2-|-3-----------3-3-|-2-2-2-2-2-2-2-2-|
A|-----------------|-----------------|-----------------|-----------------|
E|-----------------|-----------------|-----------------|-----------------|

e|-----------------|-----------------|-----------------|-----------------|
B|-----------------|-----------------|-----------------|-----------------|
G|-4---4-------4---|-3---3-------6---|-4---4-----------|-------------3---|
D|-4---4-------6---|-4---4-------8---|-6---6-------9---|-11--9-------4---|
A|-2---2-----------|-----------------|-------------6---|-7---7-----------|
E|-----------------|-----------------|-----------------|-----------------|

e|-----------------|-----------------|-----------------|-----------------|
B|-----------------|-----------------|-----------------|-----------------|
G|-4---4-------4---|-3---3-------6---|-4---4-----------|-----------------|
D|-4---4-------6---|-4---4-------8---|-6---6-------9---|-11--9-------9---|
A|-2---2-----------|-----------------|-------------6---|-7---7---11--7---|
E|-----------------|-----------------|-----------------|-----------------|

e|-----------------|-----------------|-----------------|-----------------|
B|-----------------|-----------------|-----------------|-----------------|
G|-4---4-------4---|-3---3-------6---|-4---4-----------|-------------3---|
D|-4---4-------6---|-4---4-------8---|-6---6-------9---|-11--9-------4---|
A|-2---2-----------|-----------------|-------------6---|-7---7-----------|
E|-----------------|-----------------|-----------------|-----------------|

e|-----------------|-----------------|-----------------|-----------------|
B|-----------------|-----------------|-----------------|-----------------|
G|-4---4-------4---|-3---3-------6---|-4---4-----------|-----------------|
D|-4---4-------6---|-4---4-------8---|-6---6-------9---|-11--9-----------|
A|-2---2-----------|-----------------|-------------6---|-7---7-----------|
E|-----------------|-----------------|-----------------|-----------------|

e|-----------------|-----------------|-----------------|-----------------|
B|-----------------|-----------------|-----------------|-----------------|
G|---------4-------|-----------------|---------4-------|-----------------|
D|-----6-----------|-----------------|-----4-----------|-----------------|
A|-6---------------|-----------------|-7---------------|-----------------|
E|-----------------|-----------------|-----------------|-----------------|

e|-----------------|-----------------|-----------------|-----------------|
B|---------4-------|-----------------|-----------------|-----------------|
G|-----6-----------|-----------------|---------3-------|-----------------|
D|-----------------|-----------------|-----2-----------|-----------------|
A|-----------------|-----------------|-----------------|-----------------|
E|-7---------------|-----------------|-2---------------|-----------------|

e|-----------------|-----------------|-----------------|-----------------|
B|---------------4-|-----------------|---------------4-|-----------------|
G|---------4-------|-----4-----------|---------4-------|-----4-----------|
D|-----6-----------|-----------6-----|-----4-----------|-----------4-----|
A|-6---------------|-----------------|-7---------------|-----------------|
E|-----------------|-----------------|-----------------|-----------------|

e|-----------------|-----------------|-----------------|-----------------|
B|---------4-------|-----------------|-----------------|-----------------|
G|-----6---------6-|-----------------|---------3-------|-------------x-x-|
D|-----------------|-----------------|-----2-----------|-------------x-x-|
A|-----------------|-----------------|-----------------|-------------x-x-|
E|-7---------------|-----7-----------|-2---------------|-------------x-x-|

e|-----------------|-----------------|-----------------|-----------------|
B|-----------------|-----------------|-----------------|-----------------|
G|-4-----------4-4-|-4-----------4-4-|-4-----------4-4-|-----------------|
D|-1-----------1-1-|-2-----------2-x-|-x-----------x-x-|---------------x-|
A|-----------------|---------------x-|-2-----------2-2-|-1-1---1h2-2-2-x-|
E|-----------------|---------------x-|-4-----------4-4-|-2-2---2---2-2-x-|

e|-----------------|-----------------|-----------------|-----------------|
B|-----------------|-----------------|-----------------|-----------------|
G|-4-----------4-4-|-4-----------4-4-|-4-----------4-4-|-4-4-4-4-4-4-4-4-|
D|-1-----------1-1-|-2-----------2-2-|-3-----------3-3-|-2-2-2-2-2-2-2-2-|
A|-----------------|-----------------|-----------------|-----------------|
E|-----------------|-----------------|-----------------|-----------------|

e|-----------------|-----------------|-----------------|-----------------|
B|-----------------|-----------------|-----------------|-----------------|
G|-4---4-------4---|-3---3-------6---|-4---4-----------|-------------3---|
D|-4---4-------6---|-4---4-------8---|-6---6-------9---|-11--9-------4---|
A|-2---2-----------|-----------------|-------------6---|-7---7-----------|
E|-----------------|-----------------|-----------------|-----------------|

e|-----------------|-----------------|-----------------|-----------------|
B|-----------------|-----------------|-----------------|-----------------|
G|-4---4-------4---|-3---3-------6---|-4---4-----------|-----------------|
D|-4---4-------6---|-4---4-------8---|-6---6-------9---|-11--9-------9---|
A|-2---2-----------|-----------------|-------------6---|-7---7---11--7---|
E|-----------------|-----------------|-----------------|-----------------|

e|-----------------|-----------------|-----------------|-----------------|
B|-----------------|-----------------|-----------------|-----------------|
G|-4---4-------4---|-3---3-------6---|-4---4-----------|-------------3---|
D|-4---4-------6---|-4---4-------8---|-6---6-------9---|-11--9-------4---|
A|-2---2-----------|-----------------|-------------6---|-7---7-----------|
E|-----------------|-----------------|-----------------|-----------------|

e|-----------------|-----------------|-----------------|-----------------|
B|-----------------|-----------------|-----------------|-----------------|
G|-4---4-------4---|-3---3-----------|-----------------|-----------------|
D|-4---4-------6---|-4---4-------4---|-6---6-------6---|-4---4-------4---|
A|-2---2-----------|-------------4---|-6---6-------6---|-4---4-------4---|
E|-----------------|-------------2---|-4---4-------4---|-2---2-------2---|

e|-----------------|-----------------|-----------------|-----------------|
B|-----------------|-----------------|-----------------|-----------------|
G|-1---1-------1---|-1---1-------4---|-4---4-------3---|-3---3-------1---|
D|-2---2-------2---|-2---2-------6---|-6---6-------4---|-4---4-------2---|
A|-2---2-------2---|-2---2-------6---|-6---6-------4---|-4---4-------2---|
E|-0---0-------0---|-0---0-------4---|-4---4-------2---|-2---2-------0---|

e|-----------------|-----------------|-----------------|-----------------|
B|-----------------|-----------------|-----------------|-----------------|
G|-1---1-------1---|-1---1-------4---|-4---4-------3---|-3---3-------1---|
D|-2---2-------2---|-2---2-------6---|-6---6-------4---|-4---4-------2---|
A|-2---2-------2---|-2---2-------6---|-6---6-------4---|-4---4-------2---|
E|-0---0-------0---|-0---0-------4---|-4---4-------2---|-2---2-------0---|

e|-----------------|-----------------|-----------------|-----------------|
B|-----------------|-----------------|-----------------|-----------------|
G|-1---1-------1---|-1---1-------4---|-4---4-------3---|-3---3-------1---|
D|-2---2-------2---|-2---2-------6---|-6---6-------4---|-4---4-------2---|
A|-2---2-------2---|-2---2-------6---|-6---6-------4---|-4---4-------2---|
E|-0---0-------0---|-0---0-------4---|-4---4-------2---|-2---2-------0---|

e|-----------------|-----------------|-----------------|-----------------|
B|-----------------|-----------------|-----------------|-----------------|
G|-1---1-------1---|-1---1-------4---|-4---4-------3---|-3---3-----------|
D|-2---2-------2---|-2---2-------6---|-6---6-------4---|-4---4-------4---|
A|-2---2-------2---|-2---2-------6---|-6---6-------4---|-4---4-------4---|
E|-0---0-------0---|-0---0-------4---|-4---4-------2---|-2---2-------2---|

e|-----------------|-----------------|-----------------|-----------------|
B|-----------------|-----------------|-----------------|-----------------|
G|-4---4-------4---|-3---3-------6---|-4---4-----------|-------------3---|
D|-4---4-------6---|-4---4-------8---|-6---6-------9---|-11--9-------4---|
A|-2---2-----------|-----------------|-------------6---|-7---7-----------|
E|-----------------|-----------------|-----------------|-----------------|

e|-----------------|-----------------|-----------------|-----------------|
B|-----------------|-----------------|-----------------|-----------------|
G|-4---4-------4---|-3---3-------6---|-4---4-----------|-----------------|
D|-4---4-------6---|-4---4-------8---|-6---6-------9---|-11--9-------9---|
A|-2---2-----------|-----------------|-------------6---|-7---7---11--7---|
E|-----------------|-----------------|-----------------|-----------------|

e|-----------------|-----------------|-----------------|-----------------|
B|-----------------|-----------------|-----------------|-----------------|
G|-4---4-------4---|-3---3-------6---|-4---4-----------|-------------3---|
D|-4---4-------6---|-4---4-------8---|-6---6-------9---|-11--9-------4---|
A|-2---2-----------|-----------------|-------------6---|-7---7-----------|
E|-----------------|-----------------|-----------------|-----------------|

e|-----------------|-----------------|-----------------|-----------------|
B|-----------------|-----------------|-----------------|-----------------|
G|-4---4-------4---|-3---3-------6---|-4---4-----------|-----------------|
D|-4---4-------6---|-4---4-------8---|-6---6-------9---|-11--9-------9---|
A|-2---2-----------|-----------------|-------------6---|-7---7---11--7---|
E|-----------------|-----------------|-----------------|-----------------|

e|-----------------|-----------------|-----------------|-----------------|
B|-----------------|-----------------|-----------------|-----------------|
G|-4---4-------4---|-3---3-------6---|-4---4-----------|-------------3---|
D|-4---4-------6---|-4---4-------8---|-6---6-------9---|-11--9-------4---|
A|-2---2-----------|-----------------|-------------6---|-7---7-----------|
E|-----------------|-----------------|-----------------|-----------------|

e|-----------------|-----------------|-----------------|-----------------|
B|-----------------|-----------------|-----------------|-----------------|
G|-4---4-------4---|-3---3-------6---|-4---4-----------|-----------------|
D|-4---4-------6---|-4---4-------8---|-6---6-------9---|-11--9-------9---|
A|-2---2-----------|-----------------|-------------6---|-7---7---11--7---|
E|-----------------|-----------------|-----------------|-----------------|

e|-----------------|-----------------|-----------------|-----------------|
B|-----------------|-----------------|-----------------|-----------------|
G|-4---4-------4---|-3---3-------6---|-4---4-----------|-------------3---|
D|-4---4-------6---|-4---4-------8---|-6---6-------9---|-11--9-------4---|
A|-2---2-----------|-----------------|-------------6---|-7---7-----------|
E|-----------------|-----------------|-----------------|-----------------|

e|-----------------|-----------------|-----------------|-----------------|
B|-----------------|-----------------|-----------------|-----------------|
G|-4---4-------4---|-3---3-------6---|-4---4-----------|-------------3---|
D|-4---4-------6---|-4---4-------8---|-6---6-------9---|-11--9-------4---|
A|-2---2-----------|-----------------|-------------6---|-7---7-----------|
E|-----------------|-----------------|-----------------|-----------------|

e|-----------------|-----------------|-----------------|-----------------|
B|-----------------|-----------------|-----------------|-----------------|
G|-4---4-------4---|-3---3-------6---|-4---4-----------|-------------3---|
D|-4---4-------6---|-4---4-------8---|-6---6-------9---|-11--9-------4---|
A|-2---2-----------|-----------------|-------------6---|-7---7-----------|
E|-----------------|-----------------|-----------------|-----------------|

e|-----------------|-----------------|-----------------|-----------------|
B|-----------------|-----------------|-----------------|-----------------|
G|-4---4-------4---|-3---3-------6---|-4---4-----------|-------------3---|
D|-4---4-------6---|-4---4-------8---|-6---6-------9---|-11--9-------4---|
A|-2---2-----------|-----------------|-------------6---|-7---7-----------|
E|-----------------|-----------------|-----------------|-----------------|

e|-----------------|-----------------|-----------------|-----------------|
B|-----------------|-----------------|-----------------|-----------------|
G|-4---4-------4---|-3---3-------6---|-4---4-----------|-------------3---|
D|-4---4-------6---|-4---4-------8---|-6---6-------9---|-11--9-------4---|
A|-2---2-----------|-----------------|-------------6---|-7---7-----------|
E|-----------------|-----------------|-----------------|-----------------|

e|-----------------|-----------------|-----------------|-----------------|-----|
B|-----------------|-----------------|-----------------|-----------------|-----|
G|-4---4-------4---|-3---3-------6---|-4---4-----------|-------------3---|-4---|
D|-4---4-------6---|-4---4-------8---|-6---6-------9---|-11--9-------4---|-4---|
A|-2---2-----------|-----------------|-------------6---|-7---7-----------|-2---|
E|-----------------|-----------------|-----------------|-----------------|-----|


Guitar 2:
e|-----------------|-----------------|-----------------|-----------------|
B|-----------------|-----------------|-----------------|-----------------|
G|-4---------------|-----------------|-4---------------|-----------------|
D|-6---------------|-----------------|-4---------------|-----------------|
A|-6---------------|-----------------|-7---------------|-----------------|
E|-----------------|-----------------|-----------------|-----------------|

e|-----------------|-----------------|-----------------|-----------------|
B|-4---------------|-----------------|-----------------|-----------------|
G|-----------------|-----------------|-3---------------|-----------------|
D|-----------------|-----------------|-2---------------|-----------------|
A|-----------------|-----------------|-----------------|-----------------|
E|-----------------|-----------------|-----------------|-----------------|

e|-----------------|-----------------|-----------------|-----------------|
B|-----------------|-----------------|-----------------|-----------------|
G|-4---------------|-----------------|-4---------------|-----------------|
D|-6---------------|-----------------|-4---------------|-----------------|
A|-6---------------|-----------------|-7---------------|-----------------|
E|-----------------|-----------------|-----------------|-----------------|

e|-----------------|-----------------|-----------------|-----------------|
B|-4---------------|-----------------|-----------------|-----------------|
G|-----------------|-----------------|-3---------------|-------------x-x-|
D|-----------------|-----------------|-2---------------|-------------x-x-|
A|-----------------|-----------------|-----------------|-------------x-x-|
E|-----------------|-----------------|-----------------|-------------x-x-|

e|-----------------|-----------------|-----------------|-----------------|
B|-----------------|-----------------|-----------------|-1111--111212----|
G|-8-----------8-8-|-9-----------9-x-|-13--------------|-x-x---x-x-x-----|
D|-9-----------9-9-|-9-----------9-x-|-13--------------|-8-8---8-9-9-----|
A|-6-----------6-6-|-7-----------7-x-|-11--------------|-----------------|
E|-----------------|-----------------|-----------------|-----------------|

e|-----------------|-----------------|-----------------|-----------------|
B|-----------------|-----------------|-----------------|-----------------|
G|-8-----------8-8-|-9-----------9-9-|-10----------1010|-9-9-9-9-9-9-9-9-|
D|-9-----------9-9-|-9-----------9-9-|-9-----------9-9-|-9-9-9-9-9-9-9-9-|
A|-6-----------6-6-|-7-----------7-7-|-8-----------8-8-|-7-7-7-7-7-7-7-7-|
E|-----------------|-----------------|-----------------|-----------------|

e|-----------------|-----------------|-----------------|-----------------|
B|-----------------|-----------------|-------------0---|-----------------|
G|-4---4-------4---|-3---3-------6---|-4---4-------1---|-1---1-------3---|
D|-4---4-------6---|-4---4-------8---|-6---6-------1---|-2---2-------4---|
A|-2---2-----------|-4---4-----------|-6---6-----------|-2---2-----------|
E|-----------------|-2---2-----------|-4---4-----------|-0---0-----------|

e|-----------------|-----------------|-----------------|-----0-----------|
B|-----------------|-----------------|-------------0---|---------0-------|
G|-4---4-------4---|-3---3-------6---|-4---4-------1---|-1---------------|
D|-4---4-------6---|-4---4-------8---|-6---6-------1---|-2-----------4---|
A|-2---2-----------|-4---4-----------|-6---6-----------|-2---------------|
E|-----------------|-2---2-----------|-4---4-----------|-0---------------|

e|-----------------|-----------------|-----------------|-----------------|
B|-----------------|-----------------|-------------0---|-----------------|
G|-4---4-------4---|-3---3-------6---|-4---4-------1---|-1---1-------3---|
D|-4---4-------6---|-4---4-------8---|-6---6-------1---|-2---2-------4---|
A|-2---2-----------|-4---4-----------|-6---6-----------|-2---2-----------|
E|-----------------|-2---2-----------|-4---4-----------|-0---0-----------|

e|-----------------|-----------------|-----------------|-----------------|
B|-----------------|-----------------|-----------------|-----------------|
G|-4---4-------4---|-3---3-------6---|-4---4-----------|-----------------|
D|-4---4-------6---|-4---4-------8---|-6---6-------4---|-6---4-----------|
A|-2---2-----------|-4---4-----------|-6---6-----------|---------7---6---|
E|-----------------|-2---2-----------|-4---4-----------|-----------------|

e|-----------------|-----------------|-----------------|-----------------|
B|-----------------|-----------------|-----------------|-----------------|
G|-4---------------|-----------------|-4---------------|-----------------|
D|-6---------------|-----------------|-4---------------|-----------------|
A|-6---------------|-----------------|-7---------------|-----------------|
E|-----------------|-----------------|-----------------|-----------------|

e|-----------------|-----------------|-----------------|-----------------|
B|-4---------------|-----------------|-----------------|-----------------|
G|-----------------|-----------------|-3---------------|-----------------|
D|-----------------|-----------------|-2---------------|-----------------|
A|-----------------|-----------------|-----------------|-----------------|
E|-----------------|-----------------|-----------------|-----------------|

e|-----------------|-----------------|-----------------|-----------------|
B|-----------------|-----------------|-----------------|-----------------|
G|-4---------------|-----------------|-4---------------|-----------------|
D|-6---------------|-----------------|-4---------------|-----------------|
A|-6---------------|-----------------|-7---------------|-----------------|
E|-----------------|-----------------|-----------------|-----------------|

e|-----------------|-----------------|-----------------|-----------------|
B|-4---------------|-----------------|-----------------|-----------------|
G|-----------------|-----------------|-3---------------|-------------x-x-|
D|-----------------|-----------------|-2---------------|-------------x-x-|
A|-----------------|-----------------|-----------------|-------------x-x-|
E|-----------------|-----------------|-----------------|-------------x-x-|

e|-----------------|-----------------|-----------------|-----------------|
B|-----------------|-----------------|-----------------|-1111--111212----|
G|-8-----------8-8-|-9-----------9-x-|-13--------------|-x-x---x-x-x-----|
D|-9-----------9-9-|-9-----------9-x-|-13--------------|-8-8---8-9-9-----|
A|-6-----------6-6-|-7-----------7-x-|-11--------------|-----------------|
E|-----------------|-----------------|-----------------|-----------------|

e|-----------------|-----------------|-----------------|-----------------|
B|-----------------|-----------------|-----------------|-----------------|
G|-8-----------8-8-|-9-----------9-9-|-10----------1010|-9-9-9-9-9-9-9-9-|
D|-9-----------9-9-|-9-----------9-9-|-9-----------9-9-|-9-9-9-9-9-9-9-9-|
A|-6-----------6-6-|-7-----------7-7-|-8-----------8-8-|-7-7-7-7-7-7-7-7-|
E|-----------------|-----------------|-----------------|-----------------|

e|-----------------|-----------------|-----------------|-----------------|
B|-----------------|-----------------|-------------0---|-----------------|
G|-4---4-------4---|-3---3-------6---|-4---4-------1---|-1---1-------3---|
D|-4---4-------6---|-4---4-------8---|-6---6-------1---|-2---2-------4---|
A|-2---2-----------|-4---4-----------|-6---6-----------|-2---2-----------|
E|-----------------|-2---2-----------|-4---4-----------|-0---0-----------|

e|-----------------|-----------------|-----------------|-----0-----------|
B|-----------------|-----------------|-------------0---|---------0-------|
G|-4---4-------4---|-3---3-------6---|-4---4-------1---|-1-----------3---|
D|-4---4-------6---|-4---4-------8---|-6---6-------1---|-2---------------|
A|-2---2-----------|-4---4-----------|-6---6-----------|-2---------------|
E|-----------------|-2---2-----------|-4---4-----------|-0---------------|

e|-----------------|-----------------|-----------------|-----------------|
B|-----------------|-----------------|-------------0---|-----------------|
G|-4---4-------4---|-3---3-------6---|-4---4-------1---|-1---1-------3---|
D|-4---4-------6---|-4---4-------8---|-6---6-------1---|-2---2-------4---|
A|-2---2-----------|-4---4-----------|-6---6-----------|-2---2-----------|
E|-----------------|-2---2-----------|-4---4-----------|-0---0-----------|

e|-----------------|-----------------|-----------------|-----------------|
B|-----------------|-----------------|-------------4---|-----------------|
G|-4---4-------4---|-3---3-------6---|-4---4-------4---|-3---3-------3---|
D|-4---4-------6---|-4---4-------8---|-6---6-------6---|-4---4-------4---|
A|-2---2-----------|-4---4-----------|-6---6-------6---|-4---4-------4---|
E|-----------------|-2---2-----------|-4---4-------4---|-2---2-------2---|

e|-0---0-------0---|-0---0-------4---|-4---4-------2---|-2---2-------0---|
B|-0---0-------0---|-0---0-------4---|-4---4-------2---|-2---2-------0---|
G|-1---1-------1---|-1---1-------4---|-4---4-------3---|-3---3-------1---|
D|-2---2-------2---|-2---2-------6---|-6---6-------4---|-4---4-------2---|
A|-2---2-------2---|-2---2-------6---|-6---6-------4---|-4---4-------2---|
E|-0---0-------0---|-0---0-------4---|-4---4-------2---|-2---2-------0---|

e|-0---0-------0---|-0---0-------4---|-4---4-------2---|-2---2-------0---|
B|-0---0-------0---|-0---0-------4---|-4---4-------2---|-2---2-------0---|
G|-1---1-------1---|-1---1-------4---|-4---4-------3---|-3---3-------1---|
D|-2---2-------2---|-2---2-------6---|-6---6-------4---|-4---4-------2---|
A|-2---2-------2---|-2---2-------6---|-6---6-------4---|-4---4-------2---|
E|-0---0-------0---|-0---0-------4---|-4---4-------2---|-2---2-------0---|

e|-0---0-------0---|-0---0-------4---|-4---4-------2---|-2---2-------0---|
B|-0---0-------0---|-0---0-------4---|-4---4-------2---|-2---2-------0---|
G|-1---1-------1---|-1---1-------4---|-4---4-------3---|-3---3-------1---|
D|-2---2-------2---|-2---2-------6---|-6---6-------4---|-4---4-------2---|
A|-2---2-------2---|-2---2-------6---|-6---6-------4---|-4---4-------2---|
E|-0---0-------0---|-0---0-------4---|-4---4-------2---|-2---2-------0---|

e|-0---0-------0---|-0---0-------4---|-4---4-------2---|-2---2-----------|
B|-0---0-------0---|-0---0-------4---|-4---4-------2---|-2---2-----------|
G|-1---1-------1---|-1---1-------4---|-4---4-------3---|-3---3-----------|
D|-2---2-------2---|-2---2-------6---|-6---6-------4---|-4---4-------4---|
A|-2---2-------2---|-2---2-------6---|-6---6-------4---|-4---4-------4---|
E|-0---0-------0---|-0---0-------4---|-4---4-------2---|-2---2-------2---|

e|-----------------|-----------------|-----------------|-----------------|
B|-----------------|-----------------|-----------------|-----------------|
G|-4---------------|-----------------|-----------------|-----------------|
D|-4---------------|-----------------|-----------------|-----------------|
A|-2---------------|-----------------|-----------------|-----------------|
E|-----------------|-----------------|-----------------|-----------------|

e|-----------------|-----------------|-----------------|-----------------|
B|-----------------|-----------------|-----------------|-----------------|
G|-----------------|-----------------|-----------------|-----------------|
D|-----------------|-----------------|-----------------|-----------------|
A|-----------------|-----------------|-----------------|-----------------|
E|-----------------|-----------------|-----------------|-----------------|

e|-----------------|-----4-----------|-----------------|-----------------|
B|-----7p4-7p4-----|---------7-------|-----7p4-7p4-----|-----------------|
G|-------------4---|-----------------|-------------4---|-6---4---3~b~r---|
D|-----------------|-----------------|-----------------|-----------------|
A|-----------------|-----------------|-----------------|-----------------|
E|-----------------|-----------------|-----------------|-----------------|

e|-----------------|-----------------|-----------------|-----------------|
B|---------4-------|-----------------|-----------------|-----------------|
G|-----4-------4---|-----------------|-----------------|-----------------|
D|-4---------------|-----------------|-----------------|-----------------|
A|-----------------|-----------------|-----------------|-----------------|
E|-----------------|-----------------|-----------------|-----------------|

e|-----------------|-----------------|-----------------|-----------------|
B|-----------------|-----------------|-------------0---|-----------------|
G|-4---4-------4---|-3---3-------6---|-4---4-------1---|-1---1-------3---|
D|-4---4-------6---|-4---4-------8---|-6---6-------1---|-2---2-------4---|
A|-2---2-----------|-4---4-----------|-6---6-----------|-2---2-----------|
E|-----------------|-2---2-----------|-4---4-----------|-0---0-----------|

e|-----------------|-----------------|-----------------|-----------------|
B|-----------------|-----------------|-------------0---|---------0-------|
G|-4---4-------4---|-3---3-------6---|-4---4-------1---|-1-------1-------|
D|-4---4-------6---|-4---4-------8---|-6---6-------1---|-2-------2-------|
A|-2---2-----------|-4---4-----------|-6---6-----------|-2-------2-------|
E|-----------------|-2---2-----------|-4---4-----------|-0---0---0---0---|

e|-----------------|-----------------|-----------------|-----------------|
B|-----------------|-----------------|-------------0---|-----------------|
G|-4---4-------4---|-3---3-------6---|-4---4-------1---|-1---1-------3---|
D|-4---4-------6---|-4---4-------8---|-6---6-------1---|-2---2-------4---|
A|-2---2-----------|-4---4-----------|-6---6-----------|-2---2-----------|
E|-----------------|-2---2-----------|-4---4-----------|-0---0-----------|

e|-----------------|-----------------|-----------------|-0---0---0---0---|
B|-----------------|-----------------|-------------0---|-0---0---0---0---|
G|-4---4-------4---|-3---3-------6---|-4---4-------1---|-1---1---1---1---|
D|-4---4-------6---|-4---4-------8---|-6---6-------1---|-2---2---2---2---|
A|-2---2-----------|-4---4-----------|-6---6-----------|-2---2---2---2---|
E|-----------------|-2---2-----------|-4---4-----------|-0---0---0---0---|

e|-----------------|-----------------|-----------------|-----------------|
B|-----------------|-----------------|-------------0---|-----------------|
G|-4---4-------4---|-3---3-------6---|-4---4-------1---|-1---1-------3---|
D|-4---4-------6---|-4---4-------8---|-6---6-------1---|-2---2-------4---|
A|-2---2-----------|-4---4-----------|-6---6-----------|-2---2-----------|
E|-----------------|-2---2-----------|-4---4-----------|-0---0-----------|

e|-----------------|-----------------|-----------------|-0---0---0---0---|
B|-----------------|-----------------|-------------0---|-0---0---0---0---|
G|-4---4-------4---|-3---3-------6---|-4---4-------1---|-1---1---1---1---|
D|-4---4-------6---|-4---4-------8---|-6---6-------1---|-2---2---2---2---|
A|-2---2-----------|-4---4-----------|-6---6-----------|-2---2---2---2---|
E|-----------------|-2---2-----------|-4---4-----------|-0---0---0---0---|

e|-----------------|-----------------|-----------------|-----------------|
B|-----------------|-----------------|-------------0---|-----------------|
G|-4---4-------4---|-3---3-------6---|-4---4-------1---|-1---1-------3---|
D|-4---4-------6---|-4---4-------8---|-6---6-------1---|-2---2-------4---|
A|-2---2-----------|-4---4-----------|-6---6-----------|-2---2-----------|
E|-----------------|-2---2-----------|-4---4-----------|-0---0-----------|

e|-----------------|-----------------|-----------------|-0---0---0---0---|
G|-4---4-------4---|-3---3-------6---|-4---4-------1---|-1---1---1---1---|
D|-4---4-------6---|-4---4-------8---|-6---6-------1---|-2---2---2---2---|
A|-2---2-----------|-4---4-----------|-6---6-----------|-2---2---2---2---|
E|-----------------|-2---2-----------|-4---4-----------|-0---0---0---0---|

e|-----|
B|-4---|
G|-4---|
D|-4---|
A|-2---|
E|-----|
Tap to rate this tab
# A B C D E F G H I J K L M N O P Q R S T U V W X Y Z