Song name
# A B C D E F G H I J K L M N O P Q R S T U V W X Y Z

Saves The Day - Nightingale tab

Saves The Day  Nightingale 

Guitar 1
e|-----|-------------|-------------|-------------|-----------------|
B|-----|-------------|-------------|-------------|-----------------|
G|-----|-------------|-------------|-------------|-----------------|
D|-----|-------------|-------------|-------------|---------4/6-----|
A|-----|-------------|-------------|-------------|-----------------|
E|---0-|-------------|-------------|-4-----------|-----------------|

e|-----------------|-----------------|-----------------|-----------------|
B|-----------------|-----------------|-----------------|-----------------|
G|-----------------|-----------------|-----------------|-----------------|
D|-----------------|-------4---------|-----------------|-----------9-9-9-|
A|-----------------|-------------7---|-6---------------|-----------7-7-7-|
E|-0---------------|-----------------|-4---------------|-----------------|

e|-----------------|-----------------|-----------------|-----------------|
B|-----------------|-----------------|-----------------|-----------------|
G|-----------------|-----------------|-----------------|-----------------|
D|-----------------|-------9---9---9-|-----------------|---------------9-|
A|-----------------|-------7---7---6-|-----------------|-----------6/7-7-|
E|-----------------|-----------------|-----------------|-----------------|

e|-----------------|-----------------|-----------------|-----------------|
B|-----------------|-----------------|-----------------|-----------------|
G|-----------------|-----------------|-----------------|-----------------|
D|-----------------|-------9---9---9-|-----------------|---------------9-|
A|-----------------|-------7---7---6-|-----------------|-----------6h7---|
E|-----------------|-----------------|-----------------|-----------------|

e|-----------------|-----------------|-----------------|-----------------|
B|-----------------|-----------------|-----------------|-----------------|
G|---6-----6-----6-|-----6-----6-----|---8p6---6-----6-|-----6-----6-----|
D|-----9-----9-----|-9-----9-----9---|-----------9-----|-9-----9-----9---|
A|-------7-----7---|---7-----7-----7-|p6-----6-----6---|---6-----6-----6-|
E|-----------------|-----------------|-----------------|-----------------|

e|-----------------|-----------------|-----------------|-----------------|
B|-----------------|-----------------|-----------------|-----------------|
G|---6-----6-----6-|-----6-----6-----|---8p6---6-----11|---------1111----|
D|-----9-----9-----|-9-----9-----9---|-----------9---11|---------1111--2-|
A|h7-----7-----7---|---7-----7-----7-|p6-----6-----9---|---------9-9---2-|
E|-----------------|-----------------|-----------------|---------------0-|

e|---------------2-|-----2---2-2-2---|---------------4-|---4---2---2---0-|
B|---------------4-|-----4---4-4-4---|---------------4-|---4---2---2---0-|
G|---------------4-|-----4---4-4-4-3-|-----3---3-3-3-4-|---4---3---3---1-|
D|-----2---2-2-2-4-|-----4---4-4-4-4-|-----4---4-4-4-6-|---6---4---4---2-|
A|-----2---2-2-2-2-|-----2---2-2-2-4-|-----4---4-4-4-6-|---6---4---4---2-|
E|-----0---0-0-0---|---------------2-|-----2---2-2-2-4-|---4---2---2---0-|

e|-----0---0-0-0---|-----------------|-----------------|-----------------|
B|-----0---0-0-0-4-|-----4---4-4-4---|---------------4-|---4---2---------|
G|-----1---1-1-1-4-|-----4---4-4-4-3-|-----3---3-3-3-4-|---4---3---------|
D|-----2---2-2-2-4-|-----4---4-4-4-4-|-----4---4-4-4-6-|---6---4---6/4-2-|
A|-----2---2-2-2-2-|-----2---2-2-2-4-|-----4---4-4-4-6-|---6---4---6/4-2-|
E|-----0---0-0-0---|---------------2-|-----2---2-2-2-4-|---4---2---4/2-0-|

e|-----0---0-0-0---|-----------------|-----------------|---------------0-|
B|-----0---0-0-0-4-|-----4---4-4-4---|---------------4-|---4---2---2---0-|
G|-----1---1-1-1-4-|-----4---4-4-4-3-|-----3---3-3-3-4-|---4---3---3---1-|
D|-----2---2-2-2-4-|-----4---4-4-4-4-|-----4---4-4-4-6-|---6---4---4---2-|
A|-----2---2-2-2-2-|-----2---2-2-2-4-|-----4---4-4-4-6-|---6---4---4---2-|
E|-----0---0-0-0---|---------------2-|-----2---2-2-2-4-|---4---2---2---0-|

e|-----0---0-0-0---|-----------------|-----------------|-----------------|
B|-----0---0-0-0-4-|-----4---4-4-4---|-----------------|-----------------|
G|-----1---1-1-1-4-|-----4---4-4-4-3-|-----------------|---------------4-|
D|-----2---2-2-2-4-|-----4---4-4-4-4-|-----------------|---------------x-|
A|-----2---2-2-2-2-|-----2---2-2-2-4-|-----------------|---------------2-|
E|-----0---0-0-0---|---------------2-|-----------------|---------------0-|

e|-----------------|-----------------|-----------------|-----------------|
B|-----------------|-----------------|-----------------|-----------------|
G|-----------------|---------------4-|-----------------|-----------4---4-|
D|-----------------|---------------x-|-----------------|-----------x---x-|
A|-----------------|-------2---2---2-|-----------------|-----------2---2-|
E|-----------------|-------0---0---4-|-----------------|-----------4---0-|

e|-----------------|-----------------|-----------------|-----------------|
B|-----------------|-----------------|-----------------|-----------------|
G|-----------------|-----------------|-----------------|-----------------|
D|-----------------|-----------------|-----------------|---------------2-|
A|-----------------|-----------------|-----------------|-----------1/2-2-|
E|-----------------|-----------2---4-|-----------------|---------------0-|

e|-----------------|-----------------|-----4-------4---|-------4---4-----|
B|-----------------|-----------------|-----4-------4---|-------4---4-----|
G|-----------------|-----------------|-----4-------4---|-------4---4-----|
D|---2-2-2-2-2-2-2-|-2-2-2-2-2-2-2-6-|---6-6---6-6-6---|-6-6-6-6---6---2-|
A|---2-2-2-2-2-2-2-|-2-2-2-2-2-2-2-6-|---6-6---6-6-6---|-6-6-6-6---6---2-|
E|---0-0-0-0-0-0-0-|-0-0-0-0-0-0-0-4-|---4-4---4-4-4---|-4-4-4-4---4---0-|

e|-----0-------0---|-------0---0-----|-----4-----------|-----2---------0-|
B|-----0-------0---|-------0---0-----|-----4-----------|-----2---------0-|
G|-----1-------1---|-------1---1-----|-----4-----------|-----3---------1-|
D|---2-2---2-2-2---|-2-2-2-2---2---6-|---6-6---6-6-6-4-|---4-4---4-4-4-2-|
A|---2-2---2-2-2---|-2-2-2-2---2---6-|---6-6---6-6-6-4-|---4-4---4-4-4-2-|
E|---0-0---0-0-0---|-0-0-0-0---0---4-|---4-4---4-4-4-2-|---2-2---2-2-2-0-|

e|-----0---0-0-0---|-----------------|-----------------|---------------0-|
B|-----0---0-0-0-4-|-----4---4-4-4---|---------------4-|---4---2---2---0-|
G|-----1---1-1-1-4-|-----4---4-4-4-3-|-----3---3-3-3-4-|---4---3---3---1-|
D|-----2---2-2-2-4-|-----4---4-4-4-4-|-----4---4-4-4-6-|---6---4---4---2-|
A|-----2---2-2-2-2-|-----2---2-2-2-4-|-----4---4-4-4-6-|---6---4---4---2-|
E|-----0---0-0-0---|---------------2-|-----2---2-2-2-4-|---4---2---2---0-|

e|-----0---0-0-0---|-----------------|-----------------|-----------------|
B|-----0---0-0-0-4-|-----4---4-4-4---|---------------4-|---4---2---------|
G|-----1---1-1-1-4-|-----4---4-4-4-3-|-----3---3-3-3-4-|---4---3---------|
D|-----2---2-2-2-4-|-----4---4-4-4-4-|-----4---4-4-4-6-|---6---4---6/4-2-|
A|-----2---2-2-2-2-|-----2---2-2-2-4-|-----4---4-4-4-6-|---6---4---6/4-2-|
E|-----0---0-0-0---|---------------2-|-----2---2-2-2-4-|---4---2---4/2-0-|

e|-----0---0-0-0---|-----------------|-----------------|---------------0-|
B|-----0---0-0-0-4-|-----4---4-4-4-4-|---2-2---3-3-3-4-|---4---2---2---0-|
G|-----1---1-1-1-4-|-----4---4-4-4-4-|---3-3---3-3-3-4-|---4---3---3---1-|
D|-----2---2-2-2-4-|-----4---4-4-4-4-|---4-4---4-4-4-6-|---6---4---4---2-|
A|-----2---2-2-2-2-|-----2---2-2-2-2-|---4-4---4-4-4-6-|---6---4---4---2-|
E|-----0---0-0-0---|-----------------|---2-2---2-2-2-4-|---4---2---2---0-|

e|-----0---0-0-0---|-----------------|-----------------|-----------------|
B|-----0---0-0-0-4-|-----4---4-4-4-2-|---2-2---2-2-2---|-2-2-2-2-2-2-2-2-|
G|-----1---1-1-1-4-|-----4---4-4-4-3-|---3-3---3-3-3---|-3-3-3-3-3-3-2-3-|
D|-----2---2-2-2-4-|-----4---4-4-4-4-|---4-4---4-4-4---|-4-4-4-4-4-4-4-4-|
A|-----2---2-2-2-2-|-----2---2-2-2-4-|---4-4---4-4-4---|-4-4-4-4-4-4-4-4-|
E|-----0---0-0-0---|---------------2-|---2-2---2-2-2---|-2-2-2-2-2-2-2-2-|

e|-----------------|-----------------|-----------------|-----------------|
B|-----------------|-----------------|-----------------|-----------------|
G|-4---4---4---4---|-4---4---4---4---|-4---4---4---4---|-4---4---4---4---|
D|-2---2---2---2---|-2---2---2---2---|-4---4---4---4---|-4---4---4---4---|
A|-2---2---2---2---|-2---2---2---2---|-2---2---2---2---|-2---2---2---2---|
E|-0---0---0---0---|-0---0---0---0---|-----------------|-----------------|

e|-----------------|-----------------|-----------------|-----------------|
B|-----------------|-----------------|-----------------|-----------------|
G|-4---4---4---4---|-4---4---4---4---|-4---4---4---4---|-4---4---4---4---|
D|-2---2---2---2---|-2---2---2---2---|-4---4---4---4---|-4---4---4---4---|
A|-2---2---2---2---|-2---2---2---2---|-2---2---2---2---|-2---2---2---2---|
E|-0---0---0---0---|-0---0---0---0---|-----------------|-----------------|

e|-----------------|-----------------|-----------------|-----------------|
B|-----------------|-----------------|-----------------|-----------------|
G|-4---4---4---4---|-4---4---4---4---|-4---4---4---4---|-4---4---4---4---|
D|-2---2---2---2---|-2---2---2---2---|-4---4---4---4---|-4---4---4---4---|
A|-2---2---2---2---|-2---2---2---2---|-2---2---2---2---|-2---2---2---2---|
E|-0---0---0---0---|-0---0---0---0---|-----------------|-----------------|

e|-----------------|-----------------|-----------------|-----------------|
B|-----------------|-----------------|-----------------|-----------------|
G|-4---4---4---4---|-4---4---4---4---|-4-4-4-4-4-4-4-4-|-3-3-3-3-3-3-3-3-|
D|-2---2---2---2---|-2---2---2---2---|-6-6-6-6-6-6-6-6-|-4-4-4-4-4-4-4-4-|
A|-2---2---2---2---|-2---2---2---2---|-6-6-6-6-6-6-6-6-|-4-4-4-4-4-4-4-4-|
E|-0---0---0---0---|-0---0---0---0---|-4-4-4-4-4-4-4-4-|-2-2-2-2-2-2-2-2-|

e|-0---0---0-0-0---|-----------------|-----------------|---------------0-|
B|-0---0---0-0-0-4-|-----4---4-4-4---|---------------4-|---4---2---2---0-|
G|-1---1---1-1-1-4-|-----4---4-4-4-3-|-----3---3-3-3-4-|---4---3---3---1-|
D|-2---2---2-2-2-4-|-----4---4-4-4-4-|-----4---4-4-4-6-|---6---4---4---2-|
A|-2---2---2-2-2-2-|-----2---2-2-2-4-|-----4---4-4-4-6-|---6---4---4---2-|
E|-0---0---0-0-0---|---------------2-|-----2---2-2-2-4-|---4---2---2---0-|

e|-----0---0-0-0---|-----------------|-----------------|-----------------|
B|-----0---0-0-0-4-|-----4---4-4-4---|---------------4-|---4---2---------|
G|-----1---1-1-1-4-|-----4---4-4-4-3-|-----3---3-3-3-4-|---4---3---------|
D|-----2---2-2-2-4-|-----4---4-4-4-4-|-----4---4-4-4-6-|---6---4---6/4-2-|
A|-----2---2-2-2-2-|-----2---2-2-2-4-|-----4---4-4-4-6-|---6---4---6/4-2-|
E|-----0---0-0-0---|---------------2-|-----2---2-2-2-4-|---4---2---4/2-0-|

e|-----0---0-0-0---|-----------------|-----------------|---------------0-|
B|-----0---0-0-0-4-|-----4---4-4-4-4-|---2-2---3-3-3-4-|---4---2---2---0-|
G|-----1---1-1-1-4-|-----4---4-4-4-4-|---3-3---3-3-3-4-|---4---3---3---1-|
D|-----2---2-2-2-4-|-----4---4-4-4-4-|---4-4---4-4-4-6-|---6---4---4---2-|
A|-----2---2-2-2-2-|-----2---2-2-2-2-|---4-4---4-4-4-6-|---6---4---4---2-|
E|-----0---0-0-0---|-----------------|---2-2---2-2-2-4-|---4---2---2---0-|

e|-----0---0-0-0---|-----------------|-----------------|-----------------|
B|-----0---0-0-0-4-|-----4---4-4-4---|-----------------|-----------------|
G|-----1---1-1-1-4-|-----4---4-4-4-3-|-----------------|-----------------|
D|-----2---2-2-2-4-|-----4---4-4-4-4-|-----------------|-----------------|
A|-----2---2-2-2-2-|-----2---2-2-2-4-|-----------------|-----------------|
E|-----0---0-0-0---|---------------2-|-----------------|-----------------|

Guitar 2:

e|-----------------|-----------------|-----------------|-----------------|
B|-----------------|-----------------|-----------------|-----------------|
G|-----------------|-----------------|-----------------|-----------------|
D|-----------------|-----------------|-----------------|---------------4-|
A|-----------------|-----------------|-----------------|-----------1/2---|
E|-----------------|-----------------|-----------------|-----------------|

e|-----------------|-----------------|-----------------|-----------------|
B|-----------------|-----------------|-----------------|-----------------|
G|-----------------|-----------------|-----------------|-----------------|
D|-----------------|---------------1-|-----------------|-----------------|
A|-----------------|---------------2-|-----------------|---------------2-|
E|-----------------|---------------4-|-----------------|---------------0-|

e|-----------------|-----------------|-----------------|-----------------|
B|-----------------|-----------------|-----------------|-----------------|
G|-----------------|-------1---------|-----------------|-----------------|
D|-----------------|-----------2---1-|-----------------|-------1---4---2-|
A|-----------------|-----------2---2-|-----------------|---------------2-|
E|-----------------|---------------4-|-----------------|---------------0-|

e|-----------------|-----------------|-----------------|-----------------|
B|-----4-----------|-----------------|-----------------|-----------------|
G|---------4-------|-------1---------|-----------------|-----------------|
D|-----------------|-----------2---1-|-----------------|-------1---4---6-|
A|-----------------|-----------2---2-|-----------------|-------2---4---7-|
E|-----------------|---------------4-|-----------------|-------4-------0-|

e|-----------------|-----------------|-----------------|-----------------|
B|-----4-----------|-----------------|-----------------|-----------------|
G|---------4-------|-------1---------|---------------3-|-----------------|
D|-----------------|-------1---2---1-|---------------4-|-----------444-2-|
A|-----------------|-------2---2---2-|---------------4-|-----------444-2-|
E|-----------------|---------------4-|---------------2-|-----------222-0-|

e|-----------------|-----------------|-----------------|-----------------|
B|---------------4-|-----4---4-4-4---|-----------------|-----------------|
G|---------------4-|-----4---4-4-4---|-----------------|---------------1-|
D|-----2---2-2-2-4-|-----4---4-4-4-4-|-----4---4-4-4-6-|---6---4---4---2-|
A|-----2---2-2-2-2-|-----2---2-2-2-4-|-----4---4-4-4-6-|---6---4---4---2-|
E|-----0---0-0-0---|---------------2-|-----2---2-2-2-4-|---4---2---2---0-|

e|-----------------|-----------------|-----------------|-----------------|
B|-----------------|-----------------|-----------------|-----------------|
G|-----------------|-----------------|-----------------|-----------------|
D|-----4---2-----4-|-----2---1-------|-----------------|---------------2-|
A|-----2---2-----2-|-----2---2-----1-|---1-2---2-1-1/2-|---2---1-------2-|
E|-----0---0-------|---------------2-|---2---------2/4-|---4---2---4p2-0-|

e|-----0---0-0-0---|-------0---------|-----------------|-------2---2---0-|
B|-----0---0-0-0-4-|-----4-----4-----|-----------------|-------2---2---0-|
G|-----1---1-1-1-4-|-----4---------4-|---3-3-----3-----|-------3---3---1-|
D|-----2---2-2-2-4-|---4-4---------4-|---4-4-----4-----|-------4---4---2-|
A|-----2---2-2-2-2-|---2-2---------4-|---4-4-----4-----|---2---4---4---2-|
E|-----0---0-0-0---|-----------------|--------------/4-|-------2---2---0-|

e|-----0-----------|-----------------|-----------------|---------------2-|
B|-----0-----------|-----------------|-----------------|-----------------|
G|-----1-----------|---------------3-|-----------------|-----------3h4---|
D|-----2---2-4-2-1-|-----1---1-1-1-4-|-----------------|-----------------|
A|-----2---2-2-2-2-|-----2---2-2-2-4-|-----------------|-----------------|
E|-----0-----------|-----------------|-----------------|-----------------|

e|-----------------|-----------------|-----------------|---------------2-|
B|-----------------|-------------5/4-|-----------------|-----------------|
G|-----------------|-----------------|-----------------|-----------3h4---|
D|-----------------|-----------------|-----------------|-----------------|
A|-----------------|-----------------|-----------------|-----------------|
E|-----------------|-----------------|-----------------|-----------------|

e|-----------------|------/4---------|-----------------|-----------------|
B|-----------------|-----------5---4-|-----------2-----|---0-------------|
G|-----------------|-----------------|-----------------|-----------------|
D|-----------------|-----------------|-----------------|---------------2-|
A|-----------------|-----------------|-----------------|---------------2-|
E|-----------------|-----------------|-----------------|---------------0-|

e|-----------------|-----------------|-----------------|-----------------|
B|-----4-----------|-----------------|-----------------|-----------------|
G|---------4-------|-------1---------|-----------------|-----------------|
D|-----------------|-----------2---1-|-----------------|-------1---4---6-|
A|-----------------|-----------2---2-|-----------------|-------2---4---7-|
E|-----------------|---------------4-|-----------------|-------4-------0-|

e|-----------------|-----------------|-----------------|-----------------|
B|-----4-----------|-----------------|-----------------|-----------------|
G|---------4-------|-------1---------|---------------3-|-----------------|
D|-----------------|-------1---2---1-|---------------4-|---------------2-|
A|-----------------|-------2---2---2-|---------------4-|---------------2-|
E|-----------------|---------------4-|---------------2-|---------------0-|

e|-----------------|-----------------|-----------------|-----------------|
B|---------------4-|-----4---4-4-4---|-----------------|-----------------|
G|---------------4-|-----4---4-4-4---|-----------------|-------3---3---1-|
D|-----2---2-2-2-4-|-----4---4-4-4-4-|-----4---4-4-4---|-------4---4---2-|
A|-----2---2-2-2-2-|-----2---2-2-2-4-|-----4---4-4-4---|---2---4---4---2-|
E|-----0---0-0-0---|---------------2-|-----2---2-2-2-4-|---4---2---2---0-|

e|-----------------|-----------------|-----------------|-----------------|
B|-----------------|-----------------|-----------------|-----------------|
G|-----------------|-----------------|-----------------|-----------------|
D|-----4---2-----4-|-----2---1-------|-----------------|---------------2-|
A|-----2---2-----2-|-----2---2-----1-|---1-2---2-1-1/2-|---2---1-------2-|
E|-----0---0-------|---------------2-|---2---------2/4-|---4---2---4p2-0-|

e|-----0---0-0-0---|-----------------|-----------------|---------------0-|
B|-----0---0-0-0-4-|-----4---4-4-4---|-----------------|---------------0-|
G|-----1---1-1-1-4-|-----4---4-4-4-4-|---3-3-----3-----|-------3---3---1-|
D|-----2---2-2-2-4-|---4-4---4-4-4-4-|---4-4-----4-----|-------4---4---2-|
A|-----2---2-2-2-2-|---2-2---2-2-2-4-|---4-4-----4-----|---2---4---4---2-|
E|-----0---0-0-0---|-----------------|--------------/4-|-------2---2---0-|

e|-----0-----------|-----------------|-----2-------2---|-----2---2-2-2-2-|
B|-----0-----------|-----------------|-----2-------2---|-----2---2-2-2-2-|
G|-----1-----------|---------------3-|-----3-------3---|-----3---3-3-3-3-|
D|-----2---2-4-2-1-|-----1---1-1-1-4-|---4-4---4-4-4---|-4-4-4---4-4-4-4-|
A|-----2---2-2-2-2-|-----2---2-2-2-4-|---4-4---4-4-4---|-4-4-4---4-4-4-4-|
E|-----0-----------|---------------2-|---2-2---2-2-2---|-2-2-2---2-2-2-2-|

e|-0---0---0---0---|-0---0---0---0---|-----------------|-----------------|
B|-0---0---0---0---|-0---0---0---0---|-4---4---4---4---|-4---4---4---4---|
G|-1---1---1---1---|-1---1---1---1---|-4---4---4---4---|-4---4---4---4---|
D|-2---2---2---2---|-2---2---2---2---|-4---4---4---4---|-4---4---4---4---|
A|-2---2---2---2---|-2---2---2---2---|-2---2---2---2---|-2---2---2---2---|
E|-0---0---0---0---|-0---0---0---0---|-----------------|-----------------|

e|-0---0---0---0---|-0---0---0---0---|-----------------|-----------------|
B|-0---0---0---0---|-0---0---0---0---|-4---4---4---4---|-4---4---4---4---|
G|-1---1---1---1---|-1---1---1---1---|-4---4---4---4---|-4---4---4---4---|
D|-2---2---2---2---|-2---2---2---2---|-4---4---4---4---|-4---4---4---4---|
A|-2---2---2---2---|-2---2---2---2---|-2---2---2---2---|-2---2---2---2---|
E|-0---0---0---0---|-0---0---0---0---|-----------------|-----------------|

e|-0---0---0---0---|-0---0---0---0---|-----------------|-----------------|
B|-0---0---0---0---|-0---0---0---0---|-4---4---4---4---|-4---4---4---4---|
G|-1---1---1---1---|-1---1---1---1---|-4---4---4---4---|-4---4---4---4---|
D|-2---2---2---2---|-2---2---2---2---|-4---4---4---4---|-4---4---4---4---|
A|-2---2---2---2---|-2---2---2---2---|-2---2---2---2---|-2---2---2---2---|
E|-0---0---0---0---|-0---0---0---0---|-----------------|-----------------|

e|-0---0---0---0---|-0---0---0---0---|-----4---4-4-4-2-|-----2---2-2-2-2-|
B|-0---0---0---0---|-0---0---0---0---|-----4---4-4-4-2-|-----2---2-2-2-2-|
G|-1---1---1---1---|-1---1---1---1---|-----4---4-4-4-3-|-----3---3-3-3-3-|
D|-2---2---2---2---|-2---2---2---2---|-6-6-6---6-6-6-4-|---4-4---4-4-4-4-|
A|-2---2---2---2---|-2---2---2---2---|-6-6-6---6-6-6-4-|---4-4---4-4-4-4-|
E|-0---0---0---0---|-0---0---0---0---|-4-4-4---4-4-4-2-|---2-2---2-2-2-2-|

e|-0---0---0-0-0---|-----------------|-----------------|-----------------|
B|-0---0---0-0-0-4-|-----4---4-4-4---|-----------------|-----------------|
G|-1---1---1-1-1-4-|-----4---4-4-4---|-----------------|-------3---3---1-|
D|-2---2---2-2-2-4-|-----4---4-4-4-4-|-----4---4-4-4---|-------4---4---2-|
A|-2---2---2-2-2-2-|-----2---2-2-2-4-|-----4---4-4-4---|---2---4---4---2-|
E|-0---0---0-0-0---|---------------2-|-----2---2-2-2-4-|---4---2---2---0-|

e|-----------------|-----------------|-----------------|-----------------|
B|-----------------|-----------------|-----------------|-----------------|
G|-----------------|-----------------|-----------------|-----------------|
D|-----4---2-----4-|-----2---1-------|-----------------|---------------2-|
A|-----2---2-----2-|-----2---2-----1-|---1-2---2-1-1/2-|---2---1-------2-|
E|-----0---0-------|---------------2-|---2---------2/4-|---4---2---4p2-0-|

e|-----0---0-0-0---|-------0---------|-----------------|---------------0-|
B|-----0---0-0-0-4-|-----4-----4-----|-----------------|---------------0-|
G|-----1---1-1-1-4-|-----4-----4---4-|---3-3-----3-----|-------3---3---1-|
D|-----2---2-2-2-4-|---4-4-----4---4-|---4-4-----4-----|-------4---4---2-|
A|-----2---2-2-2-2-|---2-2-----2---4-|---4-4-----4-----|---2---4---4---2-|
E|-----0---0-0-0---|-----------------|--------------/4-|-------2---2---0-|

e|-----0-----------|-----------------|-----------------|-----------------|
B|-----0-----------|-----------------|-----------------|-----------------|
G|-----1-----------|---------------3-|-----------------|-----------------|
D|-----2---2-4-2-1-|-----1---1-1-1-4-|-----------------|-----------------|
A|-----2---2-2-2-2-|-----2---2-2-2-4-|-----------------|-----------------|
E|-----0-----------|-----------------|-----------------|-----------------|

Tap to rate this tab
 
# A B C D E F G H I J K L M N O P Q R S T U V W X Y Z