Song name
# A B C D E F G H I J K L M N O P Q R S T U V W X Y Z

Saves The Day - This Is Not An Exit tab

This is Not an Exit
by Saves the Day
tabbed by Adam

This song has a lot of tasteful melodic grooves, and I know
that this tab is not 100% accurate.  It is still way better than the
other tabs for the song.  If you know of any corrections, please make them.

Verse 1
G|------------------------------------|
D|---0-2-------------0-2-----2-0------|
A|-3---------(x-3)-3-------------2-0--|
E|-------1-5-------------3-1----------|

Chorus 1
G|------------------------------------------|
D|---22-0-0h2---3h5-3h5-3-2------------5----|
A|-3----------0-----------------0----5------|
E|--------------------------1-1---33--------|

Verse 2 (a lot of fills here, these are probably wrong)
G|--------------------------------0----------------------------------------|
D|--------0-2-----------------0-2-----------5------------5-----777-5-----5-|
A|------3----(x3)-----then--3-----------5h7---7-5----5h7-------------5h7---|
E|-1-5------------3-1---------------1-5------------8-------1-5-------------|

G|--------------------------------------|
D|------------0-2-0-------3-2-0---------|
A|----------3---------------------0-2---|
E|-1-555555---------3-1---------3-------|

Chorus 2 (listen closely for the chords)
G|--------------5-2-5-2-----------------------|
D|----5>-3>-------------5-2-------------3--5--|
A|-33-3>-3>--0>-------------5----0----5-------|
E|----------------------------1>---3>---------|

Bridge
G|-------------------------------------------|------|
D|------22--------------7-----------22-------|------|
A|-0-00-------------------7------------------|---0--|
E|---------1-1--1-1-3-3-----8p5--55----1-1-3-|-1----|

Verse 3
G|-------------------------|-------0----------------------------------------|
D|---0-2-------------0-2---|---0-2--------------0-2-0-----------------------|
A|-3---------(x-3)-3-------|-3-----------(x3)-3-----------3h5p3-----------2-|
E|-------1-5------------3-1|---------1-5--------------3-1-------3h5p3-1-0---|

Chorus 3/Ending
G|------------------------------------|
D|----------------------------5>-7-5--|
A|-3>-0>---0--------0----------------5|
E|-------3---1>-1-3---3-1-2-3---------|

G|--------5p4-------------------------------------|
D|----2h5-----5p2----3h5-3h5-3-2----------3h5>----|
A|-3>-------------0>-------------3---0------------|
E|---------------------------------1>--33---------|

G|-----------------------------------------------------------------|
D|---2-0---------2-5-2-0------2-0-----2-2-0-----------3h5>---------|
A|-3-----3-2-3-3---------3--0-----3-2-------3-2--------------------|
E|----------------------------------------------1>-3>--------------|

G|------------------------------------------|
D|------------------------------------------|
A|-3>-0>---------3r-0/12r-------3r----------|
E|-------1>-3>------------1r-3r-------------|
Tap to rate this tab
 
# A B C D E F G H I J K L M N O P Q R S T U V W X Y Z