Song name
# A B C D E F G H I J K L M N O P Q R S T U V W X Y Z

Saves The Day - Freakish tab

Freakish
by Saves the Day
tabbed by Adam

Verse 1
-----------------------------------------------|
--------------------------4-4--2p1-------------|
------7-7------2-2---6-4-----------2-----------|
--4-4-------2-4-----------------------2--------|

-------------------------------------4----------|
------------------------1-2-4-4--6-6------------|
-------7-7--2-2-----2-4-------------------------|
--4-4------------2-4----------------------------|

Prechorus
--------------------------------------------------|
--1-2-6-44-4446---1-2-3--2--4-----4---------------|
--------------------------------2-----------------|
------------------------------2-------------------|

chorus
--------------------------------------------------------------------|
---------------------1-2-2-4-------------------------------------4--|
2-2----------2-4--------------2-2-----------------------6-7-7-7-----|
----4-2-2--4-----4-4--------------2-4-2-22-4-6--4-4--6-7------------|

-------------------------------------------------------------------------|
-------------------------1-2-2--4-------------------------------------4--|
2-2--------------------------------2-2----------2-4----------6-7-7-------|
----2-4-2-2--4-6-7---4-4---------------4--2-2--4-----4-4--6-7-------2---2|

Verse 2
--------------------------------------------3/4--------|
----------------------------6-6-4-----4-44------4------|
------------2--7-7--6-4-2-2-------6-4-------------6-4--|
-4-4--4-2-4--------------------------------------------|

--------------------------------------------------------6-4-3-----|
----------1--2-2-4/6-4---4--------------------------4-4-------4---|
--------2--------------6---6-4--2-2-----22-2-6-4-2--------------4-|
-4-4--4-----------------------------2-4---------------------------|

repeat prechorus

chorus 2
--------------------------------------------------------------------|
---------------------1-2-2-4-------------------------------------4--|
2-2----------2-4--------------2-2-----------------------6-7-7-7-----|
----4-2-2--4-----4-4--------------2-4-2-22-4-6--4-4--6-7------------|

----------------------------------------------------------------------------|
------------------------------------4----------------------------------4-6-4|
2-2---------------------------6-7-7----2-2----------2-4-------------6-------|
----2-4-2-2--4-6-7---4-4--6-7---------------4-2-2--4-----4-4--4-2-2---------|

bridge
----------------------------|      ----------------------------|
----2-----2-----------------|      ----2------1----------------|
-----------------6-----1-2--|      -----------------6-----1-2--|
-00---000---4-44---222------| x 2  -00----000---444---222------| x 1

--------------------------| |--------------------------|
----2-----1-------------4-| |-6--6-4-------------------|
----------------6-----1---| |--------6-4---2---------4-|
-00---000---444---222-----| |----------------4-0-2-4---|


---------------------------------------------------|
--------------------8-------6p4-4------------------|
-2-2------------7-7-9---2-2-----------77777777-----|
-----4-2-2--4-4-------------------4-4--------------|

chorus 3
----------------------------------------------------------------------|
------------------------1-2-2--4--------------------------------------|
-2-2------------2-4---------------2-2---------------------------6-7777|
-----2-4-2-2--4-----4-4---------------2-44-2-2--4-6-7--4-4--6-7-------|

----------------------------------------------------------------------------|
--------------------------------------4-------------------------------------|
-2-2-------------------------6-7-7--7----2-2--------------------------6-7777|
-----2-4-2-2--4-6-7-4-4--6-7-----------------2-4-2-2--4-6-7--4-4--6-7-------|

---------------------------------------------|
----------------------------------1-2-2-22-4-|
-2-2-2--------------2-4-------1-2------------|
-------2-4--2-2-2-4-----4-4-4----------------|

---------------------------------------------|
---------------------------------1-2-446664--|
-2-2-2-------------2-4-------1-2------------4|
-------2-4-2-2-2-4-----4-4-4-----------------|

-----------------------------------------------------------------------------|
-------------------------------------------------------------------1-2-2-2-4-|
-2-2-2-------------2-4-------1-2--2-2-2--------------2-4-------1-2-----------|
-------2-4-2-2-2-4-----4-4-4------------22-4-2-2-2-4-----4-4-4---------------|
Tap to rate this tab
# A B C D E F G H I J K L M N O P Q R S T U V W X Y Z