Song name
# A B C D E F G H I J K L M N O P Q R S T U V W X Y Z

Saves The Day - In The In Between tab

-------------------------------------------------------------------------------
                             In the In Between - Saves The Day
-------------------------------------------------------------------------------
Album: Saves The Day
Tabbed by: Bryan Simmons                
E-mail: bryan.pais.simmons@gmail.com

Tuning: 1/2 Step Down

Guitar 1 Intro
e|---------------------------------------------------------------------------|
B|---------------------------------------------------------------------------|
G|4444444444444444-----------------------------------------------------------|
D|4444444444444444-----------------------------------------------------------|
A|2222222222222222-----------------------------------------------------------|
E|---------------------------------------------------------------------------|
  xxxxxxxxxxxxxxxx

Guitar 2 Intro
e|---------------------------------------------------------------------------|
B|4444444444444444-----------------------------------------------------------|
G|4444444444444444-----------------------------------------------------------|
D|---------------------------------------------------------------------------|
A|---------------------------------------------------------------------------|
E|---------------------------------------------------------------------------|
  xxxxxxxxxxxxxxxx

Guitar Verse 1&3  
e|---------------------------------------------------------------------------|
B|---------------------------------------------------------------------------|
G|44444444444444444444444444444444-------------------------------------------|
D|44444444444444444444444444444444-66666666666666666666666666666666-22222222-|
A|22222222222222222222222222222222-66666666666666666666666666666666-22222222-|
E|---------------------------------44444444444444444444444444444444-00000000-|
  xxxxxxxxxxxxxxxxxxxxxxxxxxxxxxxx xxxxxxxxxxxxxxxxxxxxxxxxxxxxxxxx xxxxxxxx

Guitar 1 Verse 1&3 Continued
e|--------------------------------------------(0)------(2)222----------------|
B|--------------------------------------------(0)------(2)222----------------|
G|--------------------------------------------(1)------(3)333----------------|
D|44444444-22222222-44444444-22222222-44444444-22222222-44444----------------|
A|44444444-22222222-44444444-22222222-44444444-22222222-44444----------------|
E|22222222-00000000-22222222-00000000-22222222-00000000-22222----------------|
  xxxxxxxx xxxxxxxx xxxxxxxx xxxxxxxx xxxxxxxx xxxxxxxx

Guitar 2 Verse 1&3
e|---------------------------------------------------------------------------|
B|44444444444444444444444444444444-------------------------------------------|
G|44444444444444444444444444444444-44444444444444444444444444444444-11111111-|
D|---------------------------------66666666666666666666666666666666-22222222-|
A|---------------------------------------------------------------------------|
E|---------------------------------------------------------------------------|
  xxxxxxxxxxxxxxxxxxxxxxxxxxxxxxxx xxxxxxxxxxxxxxxxxxxxxzxxxxxxxxxx xxxxxxxx 

Guitar 2 Verse 1&3
e|--------------------------------------------(0)------(2)222----------------|
B|--------------------------------------------(0)------(2)222----------------|
G|33333333-11111111-33333333-11111111-33334444-11111111-33333----------------|
D|44444444-22222222-44444444-22222222-44444444-22222222-44444----------------|
A|--------------------------------------------(2)------(4)444----------------|
E|--------------------------------------------(0)------(2)222----------------|
  xxxxxxxx xxxxxxxx xxxxxxxx xxxxxxxx xxxxxxxx xxxxxxxx 

Guitar 1 Chorus
e|---------------------------------------------------------------------------|
B|---------------------------------------------------------------------------|
G|44444444---------------------------44444444--------------------------------|
D|44444444-44444444-2222222222222222-44444444-44444444-2222222222222222------|
A|22222222-44444444-2222222222222222-22222222-44444444-2222222222222222------|
E|---------22222222-0000000000000000----------22222222-0000000000000000------|

Guitar 1 Chorus Continued
e|---------------------------------------------------------------------------|
B|---------------------------------------------------------------------------|
G|44444444---------------------------44444444--------------------------------|
D|44444444-44444444-2222222222222222-44444444-44444444-2222222222222222------|
A|22222222-44444444-2222222222222222-22222222-44444444-2222222222222222------|
E|---------22222222-0000000000000000----------22222222-0000000000000000------|

Guitar 2 Chorus
e|---------------------------------------------------------------------------|
B|---------------------------------------------------------------------------|
G|------------------8999988889999886-------------------8999988889999886------|
D|---------------------------------------------------------------------------|
A|------------------6777766667777664-------------------6777766667777664------|
E|---------------------------------------------------------------------------|

Guitar 2 Chorus Continued
e|7-7-7-7----------------------------7-7-7-7--------------------------7----|
B|7-7-7-7-----------799799--7997996--7-7-7-7-----------799799-799799797----|
G|8-8-8-8--6-6-6-6--899799--8997998--8-8-8-8--6-6-6-6--899799-899799898----|
D|9-9-9-9--8-8-8-8-------------------9-9-9-9--8-8-8-8-----------------9----|
A|9-9-9-9--9-9-9-9-------------------9-9-9-9--9-9-9-9-----------------9----|
E|7-7-7-7--9-9-9-9-------------------7-7-7-7--9-9-9-9-----------------7----|
                       ~       ~                          ~       ~    
Guitar 1 Verse 2
e|---------------------------------------------------------------------------|
B|---------------------------------------------------------------------------|
G|44444444-44444444444444444444444444444444----------------------------------|
D|44444444-44444444444444444444444444444444-22222222-44444444-22222222-------|
A|22222222-22222222222222222222222222222222-22222222-44444444-22222222-------|
E|------------------------------------------00000000-22222222-00000000-------|
  xxxxxxxx xxxxxxxxxxxxxxxxxxxxxxxxxxxxxxxx xxxxxxxx xxxxxxxx xxxxxxxx

Guitar 1 Verse 2 Continued
e|---------------------------------------------------------------------------|
B|---------------------------------------------------------------------------|
G|---------------------------------------------------------------------------|
D|44444444-22222222-44444444-22222222-44444----------------------------------|
A|44444444-22222222-44444444-22222222-44444----------------------------------|
E|22222222-00000000-22222222-00000000-22222----------------------------------|
  xxxxxxxx xxxxxxxx xxxxxxxx xxxxxxxx xx

Guitar 2 Verse 2
e|---------------------------------------------------------------------------|
B|---------------------------------------------------------------------------|
G|44444444-44444444444444444444444444444444-11111111-33333333-11111111-------|
D|33333333-33333333333333333333333333333333-22222222-44444444-22222222-------|
A|---------------------------------------------------------------------------|
E|---------------------------------------------------------------------------|
  xxxxxxxx xxxxxxxxxxxxxxxxxxxxxxxxxxxxxxxx xxxxxxxx xxxxxxxx xxxxxxxx

Guitar 2 Verse 2
e|---------------------------------------22----------------------------------|
B|---------------------------------------22----------------------------------|
G|33333333-11111111-33333333-11111111-33333----------------------------------|
D|44444444-22222222-44444444-22222222-44444----------------------------------|
A|--------------------------------------444----------------------------------|
E|---------------------------------------22----------------------------------|
  xxxxxxxx xxxxxxxx xxxxxxxx xxxxxxxx xx

Guitar 1 Bridge
e|0------0------0-----0------0------0------0------0--------------------------|
B|0------0------0-----0------0------0------0------0--------------------------|
G|4------3------1-----3------4------3------1------3--------------------------|
D|6------4------2-----4------6------4------2------4--------------------------|
A|6------4------2-----4------6------4------2------4--------------------------|
E|-------0------0-----0-------------0------0------0--------------------------|
  ~      ~      ~     ~      ~      ~      ~      ~  

Guitar 2 Bridge (lower volume)
e|---------------------------------------------12----------------------------|
B|---------11-----------14---12---------14---12---11-------------------------|
G|----13-----11----11-15-------13-----15---13-------11-----------------------|
D|--13------------9-------16-----13-16----------------11---------------------|
A|14-----13-----11-----------------------------------------------------------|
E|---------------------------------------------------------------------------|

Guitar 2 Solo
e|------------------000000000---------------------------------0--------------|
B|799799797h9p7--44445555444454------------------------------4-4-97---79-----|
G|899899898---8----------------6464-6-6pb8br6-3b4br3--------4---4--989-------|
D|------------9--------------------6----------------44/6\4/6-----------------|
A|---------------------------------------------------------------------------|
E|---------------------------------------------------------------------------|

Guitar 2 Solo Continued
e|---------------------------------------------------------------------------|
B|121212121212-9-9-9--777-55-44----------------------------------------------|
G|111111111111-111111-888-44-44----------------------------------------------|
D|---------------------------------------------------------------------------|
A|---------------------------------------------------------------------------|
E|---------------------------------------------------------------------------|

Guitar 1 Final
e|---------------------------------------------------------------------------|
B|---------------------------------------------------------------------------|
G|4--------------------------------------------------------------------------|
D|4--------------------------------------------------------------------------|
A|2--------------------------------------------------------------------------|
E|---------------------------------------------------------------------------|

Guitar 2 Final
e|7--------------------------------------------------------------------------|
B|7--------------------------------------------------------------------------|
G|8--------------------------------------------------------------------------|
D|9--------------------------------------------------------------------------|
A|9--------------------------------------------------------------------------|
E|7--------------------------------------------------------------------------|

Intro
Verse 1
Chorus
Verse 2
Chorus
Bridge
Solo/Chorus: *Guitar 1 plays Chorus
Verse 3 (notes)=play and let ring
Chorus
Final





************************************

| /   slide up
| \   slide down
| h   hammer-on
| p   pull-off
| ~   vibrato
| +   harmonic
| x   Mute note
| b   Bend
| pb  Pre-bend
| br  Bend release
| pbr Pre-bend release
| brb Bend release bend

************************************

Tap to rate this tab
# A B C D E F G H I J K L M N O P Q R S T U V W X Y Z