Song name
# A B C D E F G H I J K L M N O P Q R S T U V W X Y Z

Saves The Day - Holly Hox Forget Me Not tab

HOLLY HOX, FORGET ME NOT - Saves the Day

By: Kreestan!   Email: iamsoamazing@mac.com

I can't guarantee that the amount of times to play each chord are correct, but listen to 
song and you'll get the gist of it.

intro:

e|-0------------------------------------------------------------------------|
B|-0------------------------------------------------------------------------|
G|-0---------11-11-11-11-9-9-9-9-9-8-8\6-4-4-4-4-4-4-11-11-11-11-9-9-9-9-9--|
D|-0------------------------------------------------------------------------|
A|-0----------9--9--9--9-7-7-7-7-7-6-6\4-2-2-2-2-2-2--9--9--9--9-7-7-7-7-7--|
E|-0------------------------------------------------------------------------|


e|-----------------------------------------------------------------------------|
B|-----------------------------------------------------------------------------|
G|--8-8/9-8-8-8-8-8-8-11-11-11/13\11-9-9-9/11\9-8-8-8/9\8-4-4-4/6\4------------|
D|-----------------------------------------------------------------------------|
A|--6-6/7-6-6-6-6-6-6--9--9--9/11\-9-7-7-7/-9\7-6-6-6/7\6-2-2-2/4\2------------|
E|-----------------------------------------------------------------------------|


e|----------------------------------------------------------------------------|
B|----------------------------------------------------------------------------|
G|--11-11-11/13\11-9-9-9/11\9-8~----------------------------------------------|
D|----------------------------------------------------------------------------|
A|---9--9--9/11\-9-7-7-7/-9\7-6-----------------------------------------------|
E|----------------------------------------------------------------------------|

rhythm:

e|----------------------------------------------------------------------------|
B|----------------------------------------------------------------------------|
G|-4---4/6---6/9-9-9-9-9-8-9-9-9-9-4-4-4-4-4-4/6-6-6-6-6/9-9-9-9-9-8-9-9-9-9--|
D|-4---4/6---6/9-9-9-9-9-8-9-9-9-9-4-4-4-4-4-4/6-6-6-6-6/9-9-9-9-9-8-9-9-9-9--|
A|-2---2/4---4/7-7-7-7-7-6-7-7-7-7-2-2-2-2-2-2/4-4-4-4-4/7-7-7-7-7-6-7-7-7-7--|
E|----------------------------------------------------------------------------|

e|--------------------------------------------------------------------------|
B|--------------------------------------------------------------------------|
G|-4-4-4-4-4--4/6-6-6-6-6/9-9-9-9-9-8-9-9-9-9-4-4-4-4-4-4/6-6---------------|
D|-4-4-4-4-4--4/6-6-6-6-6/9-9-9-9-9-8-9-9-9-9-4-4-4-4-4-4/6-6-2-2-2-2-2-----|
A|-2-2-2-2-2--2/4-4-4-4-4/7-7-7-7-7-6-7-7-7-7-2-2-2-2-2-2/4-4-2-2-2-2-2-----|
E|------------------------------------------------------------0-0-0-0-0-----|

e|--------------------------------------------------------------------------|
B|--------------------------------------------------------------------------|
G|--------------------------------------------------------------------------|
D|-6-6-6-6-6-6-6-6-6-6-6-6-6-2-2-2-2-2-2-2-2-2-2-2-2-4-4-4-4-4-4-4-4-4-4-4-4|
A|-6-6-6-6-6-6-6-6-6-6-6-6-6-2-2-2-2-2-2-2-2-2-2-2-2-4-4-4-4-4-4-4-4-4-4-4-4|
E|-4-4-4-4-4-4-4-4-4-4-4-4-4-0-0-0-0-0-0-0-0-0-0-0-0-2-2-2-2-2-2-2-2-2-2-2-2|
           p.m.

e|-----------------------------------|
B|-----------------------------------|
G|-9-9-9/11-11-11/13-13-13-11/13\11--|
D|-----------------------------------|
A|-7-7-7/-9--9--9/11-11-11--9/11\-9--|
E|-----------------------------------|

e|--------------------------------------------------------------------------|
B|--------------------------------------------------------------------------|
G|--------------------------------------------------------------------------|
D|-6-6-6-6-6-6-6-6-6-6-6-6-6-2-2-2-2-2-2-2-2-2-2-2-2-4-4-4-4-4-4-4-4-4-4-4-4|
A|-6-6-6-6-6-6-6-6-6-6-6-6-6-2-2-2-2-2-2-2-2-2-2-2-2-4-4-4-4-4-4-4-4-4-4-4-4|
E|-4-4-4-4-4-4-4-4-4-4-4-4-4-0-0-0-0-0-0-0-0-0-0-0-0-2-2-2-2-2-2-2-2-2-2-2-2|
           p.m.

e|--------------------------------------------------------------------------|
B|--------------------------------------------------------------------------|
G|-----8-8/9\8--------------------------------------------------------------|
D|-2-2----------------------------------------------------------------------|
A|-2-2-6-6/7\6--------------------------------------------------------------|
E|-0-0----------------------------------------------------------------------|

e|----------------------------------------------------------------------------|
B|----------------------------------------------------------------------------|
G|-4---4/6---6/9-9-9-9-9-8-9-9-9-9-4-4-4-4-4-4/6-6-6-6-6/9-9-9-9-9-8-9-9-9-9--|
D|-4---4/6---6/9-9-9-9-9-8-9-9-9-9-4-4-4-4-4-4/6-6-6-6-6/9-9-9-9-9-8-9-9-9-9--|
A|-2---2/4---4/7-7-7-7-7-6-7-7-7-7-2-2-2-2-2-2/4-4-4-4-4/7-7-7-7-7-6-7-7-7-7--|
E|----------------------------------------------------------------------------|

e|--------------------------------------------------------------------------|
B|--------------------------------------------------------------------------|
G|-4-4-4-4-4-----------6-6-6-6-6-----------4-4-4-4-4-----------6-6-6-6-6----|
D|-4-4-4-4-4-4-4-4-4-4-6-6-6-6-6-2-2-2-2-2-4-4-4-4-4-4-4-4-4-4-6-6-6-6-6----|
A|-2-2-2-2-2-4-4-4-4-4-4-4-4-4-4-2-2-2-2-2-2-2-2-2-2-4-4-4-4-4-4-4-4-4-4----|
E|-----------2-2-2-2-2-----------0-0-0-0-0-----------2-2-2-2-2--------------|

e|--------------|
B|--------------|
G|-9-9-9-8-8-8--|
D|-9-9-9-8-8-8--|
A|-7-7-7-6-6-6--|
E|--------------|

e|-----------------------------------------|
B|-----------------------------------------|
G|-4-4---6-6-6-----------------------------|
D|-4-4-4-6-6-6-2-2-2-2-2-2-2-2-2-2-2-2-2-2-|    x 4
A|-2-2-4-4-4-4-2-2-2-2-2-2-2-2-2-2-2-2-2-2-|
E|-----2-------0-0-0-0-0-0-0-0-0-0-0-0-0-0-|

e|--------------------------------------------------------------------------|
B|--------------------------------------------------------------------------|
G|--------------------------------------------------------------------------|
D|-6-6-6-6-6-6-2-2-2-2-2-2-4-4-4-4-4-4-2-2-2-2-2-2-2-2-6-6-6-6-6/14\2-2-2-2-|
A|-6-6-6-6-6-6-2-2-2-2-2-2-4-4-4-4-4-4-2-2-2-2-2-2-2-2-6-6-6-6-6/14\2-2-2-2-|
E|-4-4-4-4-4-4-0-0-0-0-0-0-2-2-2-2-2-2-0-0-0-0-0-0-0-0-4-4-4-4-4/12\0-0-0-0-|

e|--------------------------|
B|--------------------------|
G|---------9-9-9-9-9\8-6-8--|
D|-4-4-4-4------------------|
A|-4-4-4-4-7-7-7-7-7\6-4-6--|
E|-2-2-2-2------------------|

e|-----------------------------------------|
B|-----------------------------------------|
G|-4-4---6-6-6-----------------------------|
D|-4-4-4-6-6-6-2-2-2-2-2-2-2-2-2-2-2-2-2-2-|    x 9
A|-2-2-4-4-4-4-2-2-2-2-2-2-2-2-2-2-2-2-2-2-|
E|-----2-------0-0-0-0-0-0-0-0-0-0-0-0-0-0-|
Tap to rate this tab
# A B C D E F G H I J K L M N O P Q R S T U V W X Y Z