Song name
# A B C D E F G H I J K L M N O P Q R S T U V W X Y Z

Saves The Day - Morning In The Moonlight tab

Help us improve GuitareTab! Take a short survey!
Saves The Day - Morning In The Moonlight Solo

Part 1

e|----------------------------------------|
b|----------------------------------------|
g|--12--10--8--7---------7--10--7---------|
d|----------------8--10------------10-----|
a|----------------------------------------|
e|----------------------------------------|

Part 2

e|----------------------------------------------|
b|----------------------------------------------|
g|--12--10--8--7---------7--10--7------7--------|
d|----------------8--10------------10-----10--8-|
a|----------------------------------------------|
e|----------------------------------------------|

Part 3

|----------------------------------------------------------|
|----------------------------------------------------------|
|--10--12--10--12--10--8--7---------7--10--7-----7---------|
|----------------------------8--10------------10----10--8--|
|----------------------------------------------------------|
|----------------------------------------------------------|



Solo End.
Related for Morning In The Moonlight tab