Guitaretab - guitar tabs
Song name
# A B C D E F G H I J K L M N O P Q R S T U V W X Y Z

Saves The Day - Take Our Cars Now tab

*******************************
	Saves the Day
      Take our Cars Now!
*******************************

Tabbed by Strelnikov

Notes - This is exported to ASCII from Guitar Pro 5.
      - I copied it and added/subtracted some things to make it
	easier to understand.
      - It's in standard tuning.
      - The intros on both previous tabs, I don't believe were
	correct, and also, I think the song uses full chords
	rather than power chords. Of course, I don't pretend this
	is perfect, but everyone plays it their own way, change
	the strumming around if you want, embellish, whatever.
      - Anyway, here you are, have fun learning an awesome song.


Duration Legend
---------------
W - whole
H - half
Q - quarter
E - 8th


Tablature Legend
----------------
L - tied note
x - dead note
h - hammer on


~~~ Song Progression ~~~

Intro
Verse - Don't you remember the last time...
Chorus - And I told you I didn't want my picture taken...
Verse - So I floored it, swerved around the lanes...
Chorus - And I told you I didn't want my picture taken...
Bridge - And maybe you'll never remember me...
Verse - played very softly - WHOOOOAAAAAAAA, WHOOOOAAAAAAAAAAA...
Chorus - And I told you I didn't want my picture taken...


~~~ Intro ~~~

   E   E  Q    E   E  E  E     W                   W                 
|---------------------------|-------------------|-------------------|
|--1------1--------------1--|-------------------|-------------------|
|--0h--2--0-----------0-----|-------------------|-------------------|
|--------------0h--2--------|-------------------|-------------------|
|---------------------------|--3----------------|--L----------------|
|---------------------------|-------------------|-------------------|


  E   E  Q    E   E  E  E     W                   W                 
---------------------------|-------------------|-------------------|
--1------1--------------1--|-------------------|-------------------|
--0h--2--0-----------0-----|-------------------|-------------------|
--------------0h--2--------|-------------------|-------------------|
---------------------------|--0----------------|--L----------------|
---------------------------|-------------------|-------------------|


  E   E  Q    E   E  E  E     W                   W                 
---------------------------|-------------------|-------------------|
--1------1--------------1--|-------------------|-------------------|
--0h--2--0-----------0-----|-------------------|-------------------|
--------------0h--2--------|-------------------|-------------------|
---------------------------|--3----------------|--L----------------|
---------------------------|-------------------|-------------------|


  E   E  Q    E   E  E  E     W                   W                 
---------------------------|-------------------|-------------------|
--1------1--------------1--|-------------------|-------------------|
--0h--2--0-----------0-----|-------------------|-------------------|
--------------0h--2--------|--3----------------|--L----------------|
---------------------------|-------------------|-------------------|
---------------------------|-------------------|-------------------|



~~~ Verse ~~~

   Q    E  E  E  E  E  E     Q    E  E  E  E  E  E   
|--0----x--x-----x--x--x--|--3----x--x-----x--x--x--|			
|--1----x--x-----x--x--x--|--0----x--x-----x--x--x--|
|--0----x--x-----x--x--x--|--0----x--x-----x--x--x--|
|--2----x--x-----x--x--x--|--0----x--x-----x--x--x--|
|--3----x--x-----x--x--x--|--2----x--x-----x--x--x--|
|-------x--x-----x--x--x--|--3----x--x-----x--x--x--|


  Q    E  E  E  E  E  E     Q    E  E  E  E  E  E    
--1----x--x-----x--x--x--|--1----x--x-----x--x--x--|
--1----x--x-----x--x--x--|--1----x--x-----x--x--x--|
--2----x--x-----x--x--x--|--2----x--x-----x--x--x--|
--3----x--x-----x--x--x--|--3----x--x-----x--x--x--|
-------x--x-----x--x--x--|-------x--x-----x--x--x--|
-------x--x-----x--x--x--|-------x--x-----x--x--x--|

play 4x
except the last time, the last measure should be played like this:
[ Tab from: http://www.guitaretab.com/s/saves-the-day/51730.html ]
   Q    E  Q    E  E  E   
|--1----1--1----1--1--1--|
|--1----1--1----1--1--1--|
|--2----2--2----2--2--2--|
|--3----3--3----3--3--3--|
|------------------------|
|------------------------|



~~~ Chorus ~~~

   Q    E  Q    E  E  E     Q    E  Q    E  E  E   
|--0----0--0----0--0--0--|--0----0--0----0--0--0--|
|--1----1--1----1--1--1--|--1----1--1----1--1--1--|
|--2----2--2----2--2--2--|--0----0--0----0--0--0--|
|--2----2--2----2--2--2--|--2----2--2----2--2--2--|
|--0----0--0----0--0--0--|--3----3--3----3--3--3--|
|------------------------|------------------------|


  Q    E  Q    E  E  E     Q    E  Q    E  E  E   
--3----3--3----3--3--3--|--1----1--1----1--1--1--|
--0----0--0----0--0--0--|--1----1--1----1--1--1--|
--0----0--0----0--0--0--|--2----2--2----2--2--2--|
--0----0--0----0--0--0--|--3----3--3----3--3--3--|
--2----2--2----2--2--2--|------------------------|
--3----3--3----3--3--3--|------------------------|

play 4x



~~~ Bridge ~~~

   Q    E  Q    E  E  E     Q    E  Q    E  E  E   
|--0----0--0----0--0--0--|--0----0--0----0--0--0--|
|--1----1--1----1--1--1--|--1----1--1----1--1--1--|
|--2----2--2----2--2--2--|--0----0--0----0--0--0--|
|--2----2--2----2--2--2--|--2----2--2----2--2--2--|
|--0----0--0----0--0--0--|--3----3--3----3--3--3--|
|------------------------|------------------------|
							Play this
							the first
  Q    E  Q    E  E  E     Q    E  Q    E  E  E         and third
--3----3--3----3--3--3--|--3----3--3----3--3--3--|	times.
--0----0--0----0--0--0--|--0----0--0----0--0--0--|
--0----0--0----0--0--0--|--0----0--0----0--0--0--|
--0----0--0----0--0--0--|--0----0--0----0--0--0--|
--2----2--2----2--2--2--|--2----2--2----2--2--2--|
--3----3--3----3--3--3--|--3----3--3----3--3--3--|


   Q    E  Q    E  E  E     Q    E  Q    E  E  E   
|--0----0--0----0--0--0--|--0----0--0----0--0--0--|
|--1----1--1----1--1--1--|--1----1--1----1--1--1--|
|--2----2--2----2--2--2--|--0----0--0----0--0--0--|
|--2----2--2----2--2--2--|--2----2--2----2--2--2--|
|--0----0--0----0--0--0--|--3----3--3----3--3--3--|
|------------------------|------------------------|
							Play this
							the second
  Q    Q    Q    Q       Q    Q    Q    Q     		time
--3---------3---------|--3---------3---------|
--0---------0---------|--0---------0---------|
--0---------0---------|--0---------0---------|
--0---------0---------|--0---------0---------|
--2---------2---------|--2---------2---------|
--3---------3---------|--3---------3---------|


  E  E  E  E  E  E  E  E     E  E  E  E  E  E  E  E   
|--0--0--0--0--0--0--0--0--|--0--0--0--0--0--0--0--0--|
|--1--1--1--1--1--1--1--1--|--1--1--1--1--1--1--1--1--|
|--2--2--2--2--2--2--2--2--|--2--2--2--2--2--2--2--2--|
|--2--2--2--2--2--2--2--2--|--2--2--2--2--2--2--2--2--|
|--0--0--0--0--0--0--0--0--|--0--0--0--0--0--0--0--0--|
|--------------------------|--------------------------|
							Play this
							the fourth
  E  E  E  E  E  E  E  E     E  E  E  E  E  E  E  E   	time
--3--3--3--3--3--3--3--3--|--3--3--3--3--3--3--3--3--|
--0--0--0--0--0--0--0--0--|--0--0--0--0--0--0--0--0--|
--0--0--0--0--0--0--0--0--|--0--0--0--0--0--0--0--0--|
--0--0--0--0--0--0--0--0--|--0--0--0--0--0--0--0--0--|
--2--2--2--2--2--2--2--2--|--2--2--2--2--2--2--2--2--|
--3--3--3--3--3--3--3--3--|--3--3--3--3--3--3--3--3--|


~~~ Lyrics ~~~

Don't you remember the last time
I was speeding down this highway
And Anna slept in the back seat
Dreaming in the autumn heat
And we turned up the country radio
And said, "if you want me, just say so"
And I slicked back my hair in the wind

Chorus:
-
And I told you I didn't want my picture taken
You snapped it anyway
Now I guess now I guess you won't have trouble
Remembering me someday, someday...
-

So I floored it
Swerved around the lanes
And I kept wishing it was you 
Instead of me behind the wheel
So Maybe with my camera I could
Steal a shot of you
And go home to put it in my room

-Chorus-

And maybe, you'll never remember me
Maybe, my face will lose these scars
Sometimes they keep me home at night
Where I duck under the covers
And wince when I see the light

Whoooooaaaaaaaa, whoooooaaaaaaaaaa
Whoooooaaaaaaaa, whoooooaaaaaaaaaa

-Chorus-
Related for Take Our Cars Now tab
Advertisement will be closed in 10 seconds