Guitaretab - guitar tabs
Song name
# A B C D E F G H I J K L M N O P Q R S T U V W X Y Z

Saves The Day - Anywhere With You tab

I tabbed the basic parts of this tab about a month ago then figured the lead stuff out
recently. I saw the other tabs and they're not really accurate..at all so. If you're
this song by yourself, just play the rhythum parts. And the tunning is Drop C but if 
lazy you can drop D too. Oh the the lead and rhutym parts are suppose to be in sink, so the
parts are played on the rhytum's tempo...bad explination...you'll figure it out.
Tunning: C,G,C,F,A,D,

Rhythum Guitar Intro/chorus
D------------------------------------------------------|
A------------------------------------------------------|
F----play through palm muted twice---------------------|
C---333/5/777/9/10101010-00000-------------------------|
G---333/5/777/9/10101010-00000-------------------------|
C---333/5/777/9/10101010-00000-------------------------|

Lead Guitar intro/chorus
D------------------8----------------------------------|
A------------------8----------------------------------|
F------------------9----------------------------------|
C------------------10---------------------------------|
G-----------------------------------------------------|
C-----------------------------------------------------|

Pre-verse Lead and rhythum
D---------------------------------------------------------|
A---------------------------------------------------------|
F---lead----5-5/4-----------------------------------------|
C-----------3-3/2-----------------------------------------|

C-----------3-3/2----------------------------------------|
G--rhythum--3-3/2----------------------------------------|
C-----------3-3/2----------------------------------------|

Rhythum Guitar Verse (up and down strokes)
D---1-1--0-0-----repeat-----------------------------------|
A---1-1--1-1----------------------------------------------|
F---1-1--0-0----------------------------------------------|
C---3-3--2-2----------------------------------------------|
G---------------------------------------------------------|
C---------------------------------------------------------|
[ Tab from: http://www.guitaretab.com/s/saves-the-day/53315.html ]
Keep in mind the bass plays a major role in the verse..so it does sound kinda empty.
Lead Guitar Verse/precourse interlude
D--1313--8-8--repeat-then -----------------------------|
A---9-9--8-8-------------------6b----7b----------------|go striaght in to the course
F----------------------------------7-------------------|
C----------------------------7-------------------------|
G------------------------------------------------------|
C------------------------------------------------------|

Rhythum Guitar chorus
D------------------------------------------------------|
A------------------------------------------------------|
F----play through palm muted twice---------------------|
C---333/5/777/9/10101010-00000-------------------------|
G---333/5/777/9/10101010-00000-------------------------|
C---333/5/777/9/10101010-00000-------------------------|

Lead Guitar chorus
D------------------8----------------------------------|
A------------------8----------------------------------|
F------------------9----------------------------------|
C------------------10---------------------------------|
G-----------------------------------------------------|
C-----------------------------------------------------|

Little breakdown thing. Lead Guitar (up and down strokes)
D--13-13--12-12-repeat--------------------------------|
A--13-13--13-12----------6b----------7b---------------|
F--13-13--12-12--------------7--5--7------------------|
C-----------------------7-----------------------------|
G-----------------------------------------------------|
C-----------------------------------------------------|

Rhythum Guitar "last" chorus
D------------------------------------------------------|
A------------------------------------------------------|
F----play through palm muted twice---------------------|
C---333/5/777/9/10101010-00000-------------------------|
G---333/5/777/9/10101010-00000-------------------------|
C---333/5/777/9/10101010-00000-------------------------|
D------------------------------------------------------|
Lead Guitar "last chorus"
A----------------------------------------------------|
F----play through palm muted twice-------------------|
C---333/5/777/9/10101010-00000-----------------------|
G----------------------------------------------------|
C----------------------------------------------------|
intro
verse
chorus
verse
chorus
"little breakdown thing"
"last" chorus

That's it. I hope its helpful. I know I didn't get all those little lead parts, this is
first tab, so email me with comments or corrections at: wtd1185@yahoo.com
Related for Anywhere With You tab
Anywhere With You chords by Saves The Day