Song name
# A B C D E F G H I J K L M N O P Q R S T U V W X Y Z

Saves The Day - You Vandal tab

----------------------------------------------------------------------------

Tabbed by:Misfit4537
Email:

Tuning:EADGBe
Palm Mute - x

This is only my second tab, but i'm pretty sure it's mostly correct. There are 2 guitars 
you can play it just fine with one. Enjoy!
Intro
e|--------------------------------------------------------------------------|
B|--------------------------------------------------------------------------|
G|-------------------88-9-8------------------88-9-8-------------------------|
D|--6-66--6-6-6-66-6-88-9-8-2-22--2-2-2-22-2-88-9-8-------------------------|
A|--6-66--6-6-6-66-6-66/7\6-2-22--2-2-2-22-2-66/7\6-------------------------|
E|--4-44--4-4-4-44-4--------0-00--0-0-0-00-0--------------------------------|
      xx        xx            xx        xx
e|--------------------------------------------------------------------------|
B|--------------------------------------------------------------------------|
G|--4-44--4-4-4-44-4-88/9\8------------------88/9\8-------------------------|
D|--4-44--4-4-4-44-4-88/9\8-2-22--4-4-4-44-4-88/9\8-------------------------|
A|--2-22--2-2-2-22-2-66/7\6-2-22--4-4-4-44-4-66/7\6-------------------------|
E|--------------------------2-22--2-2-2-22-2--------------------------------|
      xx        xx            xx        xx
Verse(x2)
e|--------------------------------------------------------------------------|
B|--------------------------------------------------------------------------|
G|-----------9/999-9-9\9/9-999-9-9\9/9----------9/1111/12-12\11-9-----------|
D|--66666666-9/999-9-9\9/9-999-9-9\9/9-99999999-x/x-x-/x--x-\x--x-----------|
A|--66666666-6/777-7-7\6/7-777-7-7\6/7-99999999-7/9-9-/11-11\9--7-----------|
E|--44444444---------------------------77777777-----------------------------|

Fill(x1)
e|--------------------------------------------------------------------------|
B|--------------------------------------------------------------------------|
G|-----------9-11-----------------------------------------------------------|
D|--6-6-6----9-11-----------------------------------------------------------|
A|--6-6-6----7/9------------------------------------------------------------|
E|--4-4-4-------------------------------------------------------------------|

Verse(x2)
e|--------------------------------------------------------------------------|
B|--------------------------------------------------------------------------|
G|-----------9/11\9-999999\44----------9/1111/12-12\11-9--------------------|
D|--66666666-9/11\9-999999\44-99999999-x/x-x-/x--x-\x--x--------------------|
A|--66666666-7/9-\7-777777\66-99999999-7/9-9-/11-11\9--7--------------------|
E|--44444444------------------77777777--------------------------------------|

Chorus(x4)
e|--------------------------------------------------------------------------|
B|--------------------------------------------------------------------------|
G|--44----------------------------------------------------------------------|
D|--44------22------66------44----------------------------------------------|
A|--22-66/7-22-66/7-66-66/7-44-66/7\6---------------------------------------|
E|----------00------44------22----------------------------------------------|

Fill(x1)
e|---------------------------------------------------------------------------|
B|---------------------------------------------------------------------------|
G|---------------------------------------------------------------------------|
D|--6----6----6----6---------------------------------------------------------|
A|--6----6----6----6---------------------------------------------------------|
E|--4----4----4----4---------------------------------------------------------|

Verse2(x1)
e|--------------------------------------------------------------------------|
B|--------------------------------------------------------------------------|
G|-------------------88-9-8------------------88-9-8-------------------------|
D|--6-66--6-6-6-66-6-88-9-8-2-22--2-2-2-22-2-88-9-8-------------------------|
A|--6-66--6-6-6-66-6-66/7\6-2-22--2-2-2-22-2-66/7\6-------------------------|
E|--4-44--4-4-4-44-4--------0-00--0-0-0-00-0--------------------------------|
      xx        xx            xx        xx
e|--------------------------------------------------------------------------|
B|--------------------------------------------------------------------------|
G|--4-44--4-4-4-44-4-88/9\8------------------88/9\8-------------------------|
D|--4-44--4-4-4-44-4-88/9\8-2-22--4-4-4-44-4-88/9\8-------------------------|
A|--2-22--2-2-2-22-2-66/7\6-2-22--4-4-4-44-4-66/7\6-------------------------|
E|--------------------------2-22--2-2-2-22-2--------------------------------|
      xx        xx            xx        xx

Verse2 (x1)
e|--------------------------------------------------------------------------|
B|--------------------------------------------------------------------------|
G|-------------------88-9-8------------------88-9-8-------------------------|
D|--6-66--6-6-6-66-6-88-9-8-2-22--2-2-2-22-2-88-9-8-------------------------|
A|--6-66--6-6-6-66-6-66/7\6-2-22--2-2-2-22-2-66/7\6-------------------------|
E|--4-44--4-4-4-44-4--------0-00--0-0-0-00-0--------------------------------|
      xx        xx            xx        xx
e|---------------------------------------------------------------------------|
B|---------------------------------------------------------------------------|
G|--4-44--4-4-4-44-4-88/9\8------------------9/1111/12\4---------------------|
D|--4-44--4-4-4-44-4-88/9\8-2-22--4-4-4-44-4-x/1111/x-\x---------------------|
A|--2-22--2-2-2-22-2-66/7\6-2-22--4-4-4-44-4-7/9-9-/11\2---------------------|
E|--------------------------2-22--2-2-2-22-2---------------------------------|
      xx        xx            xx        xx

Bridge(x2)
e|--------------------------------------------------------------------------|
B|--------------------------------------------------------------------------|
G|--44444444-66666666-88888888-99999999-------------------------------------|
D|--xxxxxxxx-xxxxxxxx-xxxxxxxx-xxxxxxxx-------------------------------------|
A|--22222222-44444444-66666666-77777777-------------------------------------|
E|--------------------------------------------------------------------------|

Chorus(x6)
e|--------------------------------------------------------------------------|
B|--------------------------------------------------------------------------|
G|--44----------------------------------------------------------------------|
D|--44------22------66------44----------------------------------------------|
A|--22-66/7-22-66/7-66-66/7-44-66/7\6---------------------------------------|
E|----------00------44------22----------------------------------------------|

After playing the last chorus 4x a 2nd guitar plays this twice
e|--------------------------------------------------------------------------|
B|--------------------------------------------------------------------------|
G|------------------4-------------------------------------------------------|
D|--6-------2-------4-------4-----------------------------------------------|
A|--6-------2-------2-------4-----------------------------------------------|
E|--4-------0---------------2-----------------------------------------------|

Both guitars end on this
e|--------------------------------------------------------------------------|
B|--------------------------------------------------------------------------|
G|--4-----------------------------------------------------------------------|
D|--4-----------------------------------------------------------------------|
A|--2-----------------------------------------------------------------------|
E|--------------------------------------------------------------------------|
Tap to rate this tab
# A B C D E F G H I J K L M N O P Q R S T U V W X Y Z