Song name
# A B C D E F G H I J K L M N O P Q R S T U V W X Y Z

Saves The Day - Driving In The Dark Acoustic tab

e|-6-6-6-6-6-6-6-6-5-5-5-xx---5-5----------------------------|
B|-6-6-6-6-6-6-6-6-6-6-6-xx---6-6----------------------------|
G|-5-5-5-5-5-5-5-5-5-5-5-xx---7-7----------------------------|
D|-0-0-0-0-0-0-0-0-0-0-0-xx-5-5-5----------------------------|
A|-----------------------------------------------------------|
E|-----------------------------------------------------------|     x3

e|-10x-10~--10-xxx-5x-5~-5-5---------------------------------|
B|--8x--8~---8-xxx-6x-6~-6-6---------------------------------|
G|--8x--8~---8-xxx-5x-5~-5-5---------------------------------|
D|--8x--8~---8-xxx-7x-7~-7-7---------------------------------|
A|-----------------------------------------------------------|
E|-----------------------------------------------------------|

e|-6-6-6-6-6-6-6-6-5-5-5-xx---5-5----------------------------|
B|-6-6-6-6-6-6-6-6-6-6-6-xx---6-6----------------------------|
G|-5-5-5-5-5-5-5-5-5-5-5-xx---7-7----------------------------|
D|-0-0-0-0-0-0-0-0-0-0-0-xx-5-5-5----------------------------|
A|-----------------------------------------------------------|
E|-----------------------------------------------------------|    x3


e|-10x-10~--10-xxx-5x-5~-5-5---------------------------------|
B|--8x--8~---8-xxx-6x-6~-6-6---------------------------------|
G|--8x--8~---8-xxx-5x-5~-5-5---------------------------------|
D|--8x--8~---8-xxx-7x-7~-7-7---------------------------------|
A|-----------------------------------------------------------|
E|-----------------------------------------------------------|

_______________________________________from here
e|------------------------------------|
B|---3-3-x-3-3-3-x---3-3-x-3-3-3-x----|
G|---3-3-x-3-3-3-x---2-2-x-3-3-3-x----|
D|---3-3-x-3-3-3-x---3-3-x-3-3-3-x----|
A|---1-1-x-1-1-1-x---1-1-x-1-1-1-x---0|
E|------------------------------------|


e|------------------------------------|
B|---3-3-x-3-3-3-x---3-3-x-3-3-3-x----|
G|---3-3-x-3-3-3-x---2-2-x-3-3-3-x----|
D|---3-3-x-3-3-3-x---3-3-x-3-3-3-x----|
A|---x-x-x-x-x-x-x---x-x-x-x-x-x-x----|
E|---3-3-x-3-3-3-x---3-3-x-3-3-3-x----|

e|------------------------------------|
B|-4-4-4-x-4-4-4-4--------------------|
G|-3-3-3-x-3-3-3-3-2-2-x-2-2-2-2------|
D|-5-5-5-x-5-5-5-5-3-3-x-3-3-3-3------|
A|-3-3-3-x-3-3-3-3-3-3-x-3-3-3-3------|      
E|-----------------1-1-x-1-1-1-1------|
_______________________________________to here = x2

e|-6-6-6-6-6-6-6-6-5-5-5-xx---5-5----------------------------|
B|-6-6-6-6-6-6-6-6-6-6-6-xx---6-6----------------------------|
G|-5-5-5-5-5-5-5-5-5-5-5-xx---7-7----------------------------|
D|-0-0-0-0-0-0-0-0-0-0-0-xx-5-5-5----------------------------|
A|-----------------------------------------------------------|
E|-----------------------------------------------------------|     x3

e|-10x-10~--10-xxx-5x-5~-5-5---------------------------------|
B|--8x--8~---8-xxx-6x-6~-6-6---------------------------------|
G|--8x--8~---8-xxx-5x-5~-5-5---------------------------------|
D|--8x--8~---8-xxx-7x-7~-7-7---------------------------------|
A|-----------------------------------------------------------|
E|-----------------------------------------------------------|

_______________________________________from here [again]
e|------------------------------------|
B|---3-3-x-3-3-3-x---3-3-x-3-3-3-x----|
G|---3-3-x-3-3-3-x---2-2-x-3-3-3-x----|
D|---3-3-x-3-3-3-x---3-3-x-3-3-3-x----|
A|---1-1-x-1-1-1-x---1-1-x-1-1-1-x---0|
E|------------------------------------|


e|------------------------------------|
B|---3-3-x-3-3-3-x---3-3-x-3-3-3-x----|
G|---3-3-x-3-3-3-x---2-2-x-3-3-3-x----|
D|---3-3-x-3-3-3-x---3-3-x-3-3-3-x----|
A|---x-x-x-x-x-x-x---x-x-x-x-x-x-x----|
E|---3-3-x-3-3-3-x---3-3-x-3-3-3-x----|

e|------------------------------------|
B|-4-4-4-x-4-4-4-4--------------------|
G|-3-3-3-x-3-3-3-3-2-2-x-2-2-2-2------|
D|-5-5-5-x-5-5-5-5-3-3-x-3-3-3-3------|
A|-3-3-3-x-3-3-3-3-3-3-x-3-3-3-3------|      
E|-----------------1-1-x-1-1-1-1------|
_______________________________________to here = x2 [again]

then:

e|---6---6---5---6---6---6---5---6----|
B|----6-6-6---6-6-6---6-6-6---6-6-6---|
G|--7--7----7--7----7--7----7--7------|
D|-8-------8-------5-------5----------|
A|------------------------------------|
E|------------------------------------|      x2

e|---10---10---8---8------------------|
B|-----8-8--8---6-6-6-----------------|
G|--8---8-----8--8--------------------|
D|-8---------8------------------------|
A|------------------------------------|
E|------------------------------------|

e|------------------------------------|
B|---3-3-x-3-3-3-x---3-3-x-3-3-3-x----|
G|---3-3-x-3-3-3-x---2-2-x-3-3-3-x----|
D|---3-3-x-3-3-3-x---3-3-x-3-3-3-x----|
A|---1-1-x-1-1-1-x---1-1-x-1-1-1-x---0|
E|------------------------------------|


e|------------------------------------|
B|---3-3-x-3-3-3-x---3-3-x-3-3-3-x----|
G|---3-3-x-3-3-3-x---2-2-x-3-3-3-x----|
D|---3-3-x-3-3-3-x---3-3-x-3-3-3-x----|
A|---x-x-x-x-x-x-x---x-x-x-x-x-x-x----|
E|---3-3-x-3-3-3-x---3-3-x-3-3-3-x----|

e|------------------------------------|
B|-4-4-4-x-4-4-4-4--------------------|
G|-3-3-3-x-3-3-3-3-2-2-x-2-2-2-2------|
D|-5-5-5-x-5-5-5-5-3-3-x-3-3-3-3------|
A|-3-3-3-x-3-3-3-3-3-3-x-3-3-3-3------|      
E|-----------------1-1-x-1-1-1-1------|
Tap to rate this tab
 
# A B C D E F G H I J K L M N O P Q R S T U V W X Y Z