Guitaretab - guitar tabs
Song name
# A B C D E F G H I J K L M N O P Q R S T U V W X Y Z

Saves The Day - Under The Boards tab

Song: Under The Boards
Album: Under The Boards
Tabber: Hector Rios
Tuning: 1/2 step down


Intro (x5):

Eb|------------------------------------------------------------------|
Bb|----1---1-0---------0---0------------0----------------0-----------|
Gb|--2---2-----2---2-1---1---2-1------2---2-2-0--------1---1-1-2-2/4-|
Db|------------------------------------2-------2-----2--2------------|
Ab|-0-0-0-0-0-0---0--------------------------------------------------|
Eb|-----------------0-0-0-0-0-0-(0)--1---1-1-1---1--1-0---0-0-0-0----|


Second Guitar Comes in the 3rd time around (heavy delay/reverb):

eb|------------------------------------------------------------------|
Db|---------------------------------------------------17t------------|
Gb|-14t<-----------16t<---------------17t<---------------------------|
Db|------------------------------------------------------------------|
Ab|------------------------------------------------------------------|
Eb|------------------------------------------------------------------|

On the fifth time the intro goes on, just:

eb|---|
Bb|17t|
Gb|---|
Db|---|
Ab|---|
Eb|---|

Verse:

eb|---------------------------------------------|
Bb|---------------------------------------------|
Gb|---0------------0------------0---------------|
Db|-2------------2------------2-----------------|x5
Ab|0-0-0--------------------------------3-5-3-2-|
Eb|------3/5p0--1-1-1-3/5p0--0-0-0h3p0-4-4-4-4--|

Interlude:
[ Tab from: http://www.guitaretab.com/s/saves-the-day/97721.html ]
eb|1-111-0-000000|
Bb|1-111-0-000000|
Gb|2-222-1-111111|
Db|3-333-2-222222|
Ab|3-333-2-222222|
Eb|1-111-0-000000|


Breakdown:

eb|5555-3-3-1111-3-3-0~~10-10^12v10----------------------------|
Bb|5555-3-3-1111-3-3-0~~-----------10-10-10--------------------|
Gb|5555-4-4-2222-4-4-1~~---------------------------------------|
Db|7777-5-5-3333-5-5-2~~-------------------12-12-12-13-14------|
Ab|7777-5-5-3333-5-5-2~~---------------------------------12-12-|
Eb|5555-3-3-1111-3-3-0~~---------------------------------------|

eb|5555-3-3-1111-3-3-0~~15^17v15--------------------------------|
Bb|5555-3-3-1111-3-3-0~~--------15^17v15------------------------|
Gb|5555-4-4-2222-4-4-1~~-----------------14^v-------------------|
Db|7777-5-5-3333-5-5-2~~----------------------14^v-12h14p12\10--|
Ab|7777-5-5-3333-5-5-2~~--------------------------------------12|
Eb|5555-3-3-1111-3-3-0~~----------------------------------------|

eb|5555-3-3-1111-----------------------------------------------------|
Bb|5555-3-3-1111------------------------------------13-13-13-13-12-12|
Gb|5555-4-4-2222-12-12-12-12h14-14-14-14-13-13-13-13-----------------|
Db|7777-5-5-3333-----------------------------------------------------|
Ab|7777-5-5-3333-----------------------------------------------------|
Eb|5555-3-3-1111-----------------------------------------------------|

eb|-----------------------|
Bb|-----------------------|
Gb|10-10h12/14-12-10------|
Db|-----------------12/14-|
Ab|-----------------------|
Eb|-----------------------|

Verse again.

Then interlude again.
Related for Under The Boards tab
Advertisement will be closed in 10 seconds