Guitaretab - guitar tabs
Song name
# A B C D E F G H I J K L M N O P Q R S T U V W X Y Z

Saves The Day - Tomorrow Too Late Acoustic tab

you can listen this great version of tomorrow too late in internet....



Light beams throug 

e|-8---7---7---3--3--4-------3--------8---7---7---3--3--4-----|
B|-8---6---6---4--3--4---6---4---6----8---6---6---4--3--4---6-|
G|-8---7---7---3--4--5---5---3---5----8---7---7---3--4--5---5-|
D|-6---6---5---5--5--6---6---5---6----6---6---5---5--5--6---6-|
A|-------------3--5--6---4---3---4----------------3--5--6---4-|
E|----------------3--4-------------------------------3--4-----|


e|-3-3-33--3-3--3-3-4-4---------3-333------33-3-3-3-3----------|
B|-4-4-44--4-4--3-3-4-4---8-6-3-1-111------44-4-4-4-4--3-3-4-4-|
G|-3-3-33--3-3--4-4-5-5---8-6-4-1-111-3-3/533-3-3-3-3--4-4-5-5-|
D|-5-5-55--5-5--5-5-6-6---8-6-5-3-333-3-3/555-5-5-5-5--5-5-6-6-|
A|-3-3-33--3-3--5-5-6-6---6-4-5-1-111-1-1/333-3-3-3-3--5-5-6-6-|
E|--------------3-3-4-4-------3------------------------3-3-4-4-|

Wind blows through

e|-8---7---7---3--3--4-------3--------8---7---7---3--3--4-----|
B|-8---6---6---4--3--4---6---4---6----8---6---6---4--3--4---6-|
G|-8---7---7---3--4--5---5---3---5----8---7---7---3--4--5---5-|
D|-6---6---5---5--5--6---6---5---6----6---6---5---5--5--6---6-|
A|-------------3--5--6---4---3---4----------------3--5--6---4-|
E|----------------3--4-------------------------------3--4-----|


e|-3-3-33--3-3--3-3-4-4---------3-333------|
B|-4-4-44--4-4--3-3-4-4---8-6-3-1-111------|
G|-3-3-33--3-3--4-4-5-5---8-6-4-1-111-3-3/5|
D|-5-5-55--5-5--5-5-6-6---8-6-5-3-333-3-3/5|
A|-3-3-33--3-3--5-5-6-6---6-4-5-1-111-1-1/3|
E|--------------3-3-4-4-------3------------|


When was the last time

e|-3-3-33--3-3--3-3-4-4---------3-333------|
B|-4-4-44--4-4--3-3-4-4---8-6-3-1-111------|
G|-3-3-33--3-3--4-4-5-5---8-6-4-1-111-3-3/5|
D|-5-5-55--5-5--5-5-6-6---8-6-5-3-333-3-3/5|
A|-3-3-33--3-3--5-5-6-6---6-4-5-1-111-1-1/3|
E|--------------3-3-4-4-------3------------|

Feels like a zillion years

e|-3-3-33--3-3--3-3-4-4---3-3--1-1-44-3333|
B|-4-4-44--4-4--3-3-4-4---3-3--1-1-44--4444|
G|-3-3-33--3-3--4-4-5-5---4-4--1-1-55--3333|
D|-5-5-55--5-5--5-5-6-6---5-5--3-3-66--5555|
A|-3-3-33--3-3--5-5-6-6---5-5--3-3-66--3333|
E|--------------3-3-4-4---3-3--1-1--44------|

To find you is to lose you,

e|3-3-4-4---3-3--1-1-44-3333|
B|3-3-4-4---3-3--1-1-44--4444|
G|4-4-5-5---4-4--1-1-55--3333|
D|5-5-6-6---5-5--3-3-66--5555|
A|5-5-6-6---5-5--3-3-66--3333|
E|3-3-4-4---3-3--1-1--44------|
Tell me

e|3-3-4-4---------3-333------|
B|3-3-4-4---8-6-3-1-111------|
G|4-4-5-5---8-6-4-1-111-3-3/5|
D|5-5-6-6---8-6-5-3-333-3-3/5|
A|5-5-6-6---6-4-5-1-111-1-1/3|
E|3-3-4-4-------3------------|

When was the last time
[ Tab from: http://www.guitaretab.com/s/saves-the-day/98842.html ]
e|-3-3-33--3-3--3-3-4-4---------3-333------|
B|-4-4-44--4-4--3-3-4-4---8-6-3-1-111------|
G|-3-3-33--3-3--4-4-5-5---8-6-4-1-111-3-3/5|
D|-5-5-55--5-5--5-5-6-6---8-6-5-3-333-3-3/5|
A|-3-3-33--3-3--5-5-6-6---6-4-5-1-111-1-1/3|
E|--------------3-3-4-4-------3------------|


Never a worry would

e|-3-3-33--3-3--3-3-4-4---------3-333------|
B|-4-4-44--4-4--3-3-4-4---8-6-3-1-111------|
G|-3-3-33--3-3--4-4-5-5---8-6-4-1-111-3-3/5|
D|-5-5-55--5-5--5-5-6-6---8-6-5-3-333-3-3/5|
A|-3-3-33--3-3--5-5-6-6---6-4-5-1-111-1-1/3|
E|--------------3-3-4-4-------3------------|


Feels like a zillion years

e|-3-3-33--3-3--3-3-4-4---3-3--1-1-44-3333|
B|-4-4-44--4-4--3-3-4-4---3-3--1-1-44--4444|
G|-3-3-33--3-3--4-4-5-5---4-4--1-1-55--3333|
D|-5-5-55--5-5--5-5-6-6---5-5--3-3-66--5555|
A|-3-3-33--3-3--5-5-6-6---5-5--3-3-66--3333|
E|--------------3-3-4-4---3-3--1-1--44------|

To find you is to lose you,

e|3-3-4-4---3-3--1-1-44-3333|
B|3-3-4-4---3-3--1-1-44--4444|
G|4-4-5-5---4-4--1-1-55--3333|
D|5-5-6-6---5-5--3-3-66--5555|
A|5-5-6-6---5-5--3-3-66--3333|
E|3-3-4-4---3-3--1-1--44------|

One more night 

e|3-3-4-4---3-3--1-1-44-3333|
B|3-3-4-4---3-3--1-1-44--4444|
G|4-4-5-5---4-4--1-1-55--3333|
D|5-5-6-6---5-5--3-3-66--5555|
A|5-5-6-6---5-5--3-3-66--3333|
E|3-3-4-4---3-3--1-1--44------|






Tell me

e|3-3-4-4------|
B|3-3-4-4--6666|
G|4-4-5-5--5555|
D|5-5-6-6--6666|
A|5-5-6-6--4444|
E|3-3-4-4------|

When was the last time

e|-3-3-33--3-3--3-3-4-4---------3-333------|
B|-4-4-44--4-4--3-3-4-4---8-6-3-1-111------|
G|-3-3-33--3-3--4-4-5-5---8-6-4-1-111-3-3/5|
D|-5-5-55--5-5--5-5-6-6---8-6-5-3-333-3-3/5|---
A|-3-3-33--3-3--5-5-6-6---6-4-5-1-111-1-1/3|
E|--------------3-3-4-4-------3------------|
                                                 

Never a worry would                               X2

e|-3-3-33--3-3--3-3-4-4---------3-333------|
B|-4-4-44--4-4--3-3-4-4---8-6-3-1-111------|
G|-3-3-33--3-3--4-4-5-5---8-6-4-1-111-3-3/5|---
D|-5-5-55--5-5--5-5-6-6---8-6-5-3-333-3-3/5|
A|-3-3-33--3-3--5-5-6-6---6-4-5-1-111-1-1/3|
E|--------------3-3-4-4-------3------------|


Tomorrow is much too late

e|-3-3-33--3-3--3-3-4-4---------3-333------|
B|-4-4-44--4-4--3-3-4-4---8-6-3-1-111------|
G|-3-3-33--3-3--4-4-5-5---8-6-4-1-111-3-3/5|
D|-5-5-55--5-5--5-5-6-6---8-6-5-3-333-3-3/5|
A|-3-3-33--3-3--5-5-6-6---6-4-5-1-111-1-1/3|
E|--------------3-3-4-4-------3------------|

Tomorrow is much too late

e|-3-3-33--3-3--3-3-4-4---------3-|
B|-4-4-44--4-4--3-3-4-4---8-6-3-1-|
G|-3-3-33--3-3--4-4-5-5---8-6-4-1-|
D|-5-5-55--5-5--5-5-6-6---8-6-5-3-|
A|-3-3-33--3-3--5-5-6-6---6-4-5-1-|
E|--------------3-3-4-4-------3---|
                        
                         
Final
e|--------3-----------1-|
B|----1-----1--------1--|
G|--1---1-----1-----1---|
D|3-------------3--0----|
A|----------------------|
E|----------------------|


Related for Tomorrow Too Late Acoustic tab