Song name
# A B C D E F G H I J K L M N O P Q R S T U V W X Y Z

Saves The Day - Turning Over In My Tomb tab

Saves The Day
Turning Over In My Tomb
Under The Boards
12/01/07
sn.fifty@gmail.com

Great scary song. Song is covered in DVD.

Eb Tuning


Part one. Repeat as needed.
eb|--------------------------------------|
Bb|------1--------1--------1--------1----|
Gb|--------3--------3--------3--------3--|
Db|----0--------0--------0--------0------|
Ab|--------------------------------------|
Eb|--3--------2--------1--------0--------|


Part two.
eb|----------------------------------------------|
Bb|--------------3~----------3~-------------3-3--|
Gb|-3<-----------x-----3~----2~----3~-----3-3-30-|
Db|-3<-swell-----3~----3~----3~----3~---3-3-3-30-|
Ab|-2<-----------2~----2~----2~----2~---2-2-2-20-|
Eb|-3<-----------3~----3~----3~----3~---3-3-3-3--|

eb|--------------------------------------|
Bb|------4-------4-----------------------|
Gb|------5-------5-0------4-------4------|
Db|------5-------5-0------3-------3------|
Ab|--3-3-3-3-3-3-3-0---------------------|
Eb|-------------------3-3---3-3-3---3----|

eb|--------------------------------------|
Bb|------4-----4-4-4--3------------------|
Gb|------5-----3-3-3--4---4-------4------|
Db|------5-----5-5-5--5---3-------3------|
Ab|--3-3-3-3-3---------------------------|
Eb|---------------------3---3-3-3---3----|

Not too sure about these two chords. Root note indicated.
eb|------(4)---|
Bb|--8~---4~---|
Gb|--8~---7~---|
Db|--5~---6~---|
Ab|--6~---5~---|
Eb|-(4)--(4)---|


Part Three. Repeat as needed. VERY TRICKY. I suggest the alternate method.
eb|--------------------------------------|-----|
Bb|------6-4------6-4------6-4------6-4--|-----|
Gb|----5--------5--------5--------5------|-----|
Db|--------------------------------------|-end-|
Ab|--3--------2-----------------0--------|-----|
Eb|--------------------6-----------------|-4~--|

Alternative. Leave the top 2 strings tuned as E and B.
This way, all the strings ring, giving it a better sound.
In turn, leave the 2nd string in part one open.
e-|------0--------0--------0--------0----|-----|
B-|----0--------0--------0--------0------|-----|
Gb|--------8--------8--------8--------8--|-----|
Db|--------------------------------------|-end-|
Ab|--------------------------------------|-----|
Eb|--8--------7--------6--------5--------|-4~--|
Tap to rate this tab
# A B C D E F G H I J K L M N O P Q R S T U V W X Y Z