Song name
# A B C D E F G H I J K L M N O P Q R S T U V W X Y Z

Saving Abel - Sailed Away tab

im 15 and this is my first tab,i hope ya'll like it.

----------------------------------------------------------------------------
			     Sailed Away By Saving Abel
-----------------------------------------------------------------------------
Tabbed by:15yroldguy
Email:ward.redneck17@gmail.com

Tuning:Standard

e|---X------X------X--------------------------------------------------------|
B|---X------X------X--------------------------------------------------------|
G|---6------X------9-------4------------------------------------------------|
D|---6------7------9-------4------------------------------------------------|
A|4---------7---7--------2--------------------------------------------------|
E|X------5------X--------X--------------------------------------------------|

e|---X----X------X----------------------------------------------------------|
B|---X----X------X----------------------------------------------------------|
G|---6----X------9----------------------------------------------------------|
D|---6----7------9----------------------------------------------------------|
A|4-------7---7-------------------------------------------------------------|
E|X-----5-----X-------------------------------------------------------------|
Tap to rate this tab
 
# A B C D E F G H I J K L M N O P Q R S T U V W X Y Z