Song name
# A B C D E F G H I J K L M N O P Q R S T U V W X Y Z

Saving Abel - Running From You Acoustic tab

This is a great song and i figured out how to play it in standard tuning and 
on an acoustic steel guitar.still dont figured out the bridge and solo parts, 
and btw this is my first tab hope you enjoy.if you found a better way to play
it mail me to slither_2006@hotmail.com



-->Intro
                                             
e-------------------------------------------------------------------------|
b----------8-----6---3-3-----8---1/2---1-1-----8---6---3-3-----8----6---3-|
g----0-0-0---0-0--0-0-0-0-0-0-0-0---0-0-0-0-0-0-0-0-0-0-0-0-0-0-0-0--0-0--|
d-------------------------------------------------------------------------|
a-------------------------------------------------------------------------|
d-------------------------------------------------------------------------|

-->Verse

..I say goodbye to the rearview mirror...

Guitar 1
e-----------------------------------------------------------------------|
b-----------------4-----------------------------------------------------|
g----4------2-----5-----------------------------------------------------|
d----5------3-----5-----------------------------------------------------|
a----5------3-----3-----------------------------------------------------|
d----3------1-----------------------------------------------------------|

Guitar 2 (similar as intro)
e-----------------------------------------------------------------------|
b----------8-----6---3-3-----8---6---3-3-----8---6---3-3----------------|
g----0-0-0---0-0--0-0-0-0-0-0-0-0---0-0-0-0-0-0-0-0-0-0-0-0-------------|
d-----------------------------------------------------------------------|
a-----------------------------------------------------------------------|
d-----------------------------------------------------------------------|

e-------------------------------------------------------------------------|
b----------8---1/2---1-1--------------------------------------------------|
g----0-0-0--0-0---0-0-0-0-0-----------------------------------------------|
d-------------------------------------------------------------------------|
a-------------------------------------------------------------------------|
d-------------------------------------------------------------------------|


 
-->Chorus Chords           
 
e-----------------------------------------------------------------------|
b------------------------------------4----------------------------------|
g-----4----4----6---7---7-----2---2--5----------------------------------|
d-----5----5----7---8---8-----3---3--5----------------------------------|
a-----5----5----7---8---8-----3---3--3----------------------------------|
d-----3----3----5---6---6-----1---1-------------------------------------| 4x then


...will you say goodbye...
e-----------------------------------------------------------------------|
b-----3----3----3-------------------------------------------------------|
g-----4----4----4---7---7--7--6-6-6-4-4-4-------------------------------|
d-----4----4----4---8---8--8--7-7-7-5-5-5-------------------------------|
a-----2----2----2---8---8--8--7-7-7-5-5-5-------------------------------|
d-------------------6---6--6--5-5-5-3-3-3-------------------------------| x2


e-----------------------------------------------------------------------|
b-----3----3----3-------------------------------------------------------|
g-----4----4----4---7---7--7--6-6-6-4-4-4-2-----------------------------|
d-----4----4----4---8---8--8--7-7-7-5-5-5-3-----------------------------|
a-----2----2----2---8---8--8--7-7-7-5-5-5-3-----------------------------|
d-------------------6---6--6--5-5-5-3-3-3-1-----------------------------| 



--> on end of 2nd chorus

....If I stay, you've got to understand


e-----------------------------------------------------------------------|
b-----2-----------------------------------------------------------------|
g-----5------4-----0--2-------------------------------------------------|
d-----5------5-----2--3-------------------------------------------------|
a-----3------5-----2--3-------------------------------------------------|
d------------3-----0--1-------------------------------------------------|


-->last chorus

e-----------------------------------------------------------------------|
b-------------------------------------6--6--6---------------------------|
g----6--6--6--8--9---9---9---4--4--4--7--7--7---------------------------|
d----7--7--7--9--10--10--10--5--5--5--7--7--7---------------------------|
a----7--7--7--9--10--10--10--5--5--5--5--5--5---------------------------|
d----5--5--5--7--8---8---8---3--3--3------------------------------------| 4x

...will you say goodbye...
e-----------------------------------------------------------------------|
b-----5----5----5-------------------------------------------------------|
g-----6----6----6---9---9---9---9-9-9-7-7-7-----------------------------|
d-----6----6----6---10--10--10--8-8-8-6-6-6-----------------------------|
a-----4----4----4---10--10--10--8-8-8-6-6-6-----------------------------|
d-------------------8---8---8---7-7-7-5-5-5-----------------------------| x2

e-----------------------------------------------------------------------|
b-----5----5----5-------------------------------------------------------|
g-----6----6----6---9---9---9---9-9-9-7-7-4-----------------------------|
d-----6----6----6---10--10--10--8-8-8-6-6-5-----------------------------|
a-----4----4----4---10--10--10--8-8-8-6-6-5-----------------------------|
d-------------------8---8---8---7-7-7-5-5-3-----------------------------| 
Tap to rate this tab
# A B C D E F G H I J K L M N O P Q R S T U V W X Y Z