Song name
# A B C D E F G H I J K L M N O P Q R S T U V W X Y Z

Saving Abel - Drowning Face Down tab

-------------------------------------------------------------------------------
			     DROWNING (FACE DOWN) - Saving Abel
-------------------------------------------------------------------------------
Tabbed by: UFJohn
Email: UFJohn@gmail.com

Tuning: Standard

e|---------------------------------------------------------------------------|
B|-13b(15)~~~(15)~~~(15)r13-10-12b(13)~~~--10-12-12b(13)~~(13)r12-10---------|
G|---------------------------------------------------------------------------|
D|---------------------------------------------------------------------------|
A|---------------------------------------------------------------------------|
E|---------------------------------------------------------------------------|

e|---------------------------------------12-------------------------12~~~~~--|
B|------------------------------------12----12-13b(15)~~~(15)r13-10----------|
G|-12-11h12p11-------------10-12b(14)----------------------------------------|
D|-------------12-12\--/12---------------------------------------------------|
A|---------------------------------------------------------------------------|
E|---------------------------------------------------------------------------|

e|-10-------13~--10-------12~--10-------13~--10-------12~--10-12b(13)~~~-----|
B|----13p10---------13p10---------13p10---------13p10------------------------|
G|---------------------------------------------------------------------------|
D|---------------------------------------------------------------------------|
A|---------------------------------------------------------------------------|
E|---------------------------------------------------------------------------|

e|-12b(13)r12-10-----13-----------------13-15-15b(17)~~(17)r15-13-15-13b(1/4)|
B|---------------/15----15p13-15\---/15--------------------------------------|
G|---------------------------------------------------------------------------|
D|---------------------------------------------------------------------------|
A|---------------------------------------------------------------------------|
E|---------------------------------------------------------------------------|

e|----------13-----------13----------13----------13--------------------------|
B|15p13--------15p13-------15p13--------15p13-------15-13-15\-----/18\-------|
G|------14-----------14----------14-----------14-----------------------------|
D|---------------------------------------------------------------------------|
A|---------------------------------------------------------------------------|
E|---------------------------------------------------------------------------|

e|-/20b(22)~~(22)~~~---------------------------------------------------------|
B|---------------------------------------------------------------------------|
G|---------------------------------------------------------------------------|
D|---------------------------------------------------------------------------|
A|---------------------------------------------------------------------------|
E|---------------------------------------------------------------------------|


| /  slide up
| \  slide down
| h  hammer-on
| p  pull-off
| ~  vibrato
| +  harmonic
| x  Mute note
===============================================================================


A little theory if you're interested:
Jason Null's solo is played in D minor pentatonic.  He makes it a little
flashier by throwing in an occasional major 6th, major 9th, and major 3rd.

The roots are indicated like (this).
Minor thirds are indicated like [this]

D minor pentatonic first position:

e|--(10)----[13]---|
B|---10------13----|
G|--[10]--12-------|
D|---10--(12)------|
A|---10---12-------|
E|--(10)----[13]---|

D minor pentatonic first position with |6ths| and {9ths} added

e|--10--{12}-13-------|
B|--10--|12|-13-------|
G|--10---12-----------|
D|--10---12-----{14}--|
A|--10---12-----|14|--|
E|--10-------13-------|

D minor pentatonic with major thirds indicated like "this" with roots
and minor thirds indicated as before
e|--(10)---------[13]-"14"-|
B|---10-----------13-------|
G|--[10]-"11"-12-----------|
D|---10------(12)----------|
A|---10-------12-----------|
E|--(10)---------[13]-"14"-|


D minor penatonic second position:

e|----13--15--|
B|----13--15--|
G|--12--14----|
D|--12----15--|
A|--12----15--|
E|----13--15--|

I think it's easier to play the fast lick in the first position on the third
line of tab so that you can bend the 12th fret at the end with your ring
finger.  If you prefer, you can play it in the second position instead, as
is tabbed in the fifth line.
Tap to rate this tab
# A B C D E F G H I J K L M N O P Q R S T U V W X Y Z