Song name
# A B C D E F G H I J K L M N O P Q R S T U V W X Y Z

Saving Abel - Drowning Face Down tab

Check out my youtube site for insturctional videos 
http://www.youtube.com/user/benm1888?feature=mhw4

this tab is close to the way they play the song, might help get you started


Intro

e-------0h2----------------------------------3------------------------------|
b-----3-------3--------3--------------3------3--3----------3----------------|
g---2-------2---0--------0----------0---0----0----0----------0--------------|
d-0---------------0--------0------2-------2--2------2--0h2------------------|
a----------------------------0--3------------0------------------------------|
E-------------------3-------------------------------------------------------|


Bridge x4

e-------0h2-----3p2------0h2-------3-----3----------------------------------|
b-----3-------3--------3--------3--3-----3----------------------------------|
g---2-------2-------2---------2----0-----0----------------------------------|
d-0--------------------------------2-----0----------------------------------|
a----------------------------------3-----2----------------------------------|
E----------------------------------------3----------------------------------|


Solo

e---------------------------------------------------------------------------|
b-13b-13b(15)-(15)-r13--12p10----10-12br12p10-------------------------------|
g-----------------------------12--------------12---12-12-12-12p10----10-----|
d-----------------------------------------------------------------12--------|
a---------------------------------------------------------------------------|
E---------------------------------------------------------------------------|

e-----12------10----------------13---------13---------13--------13-----------|
b---12--12-13b--13-10-------------13h15p13---13h15p13---13h15p13--13h15p13---|
g12b------------------12br-10-12---------------------------------------------|
d----------------------------------------------------------------------------|
a----------------------------------------------------------------------------|
E----------------------------------------------------------------------------|

e--15br-15--15p13---13----13--------13-----15br-15br-15-15-15-15-15p13------|
b----------------------15----13--15-----15-----------------------------15---|
g---------------------------------------------------------------------------|
d---------------------------------------------------------------------------|
a---------------------------------------------------------------------------|
E---------------------------------------------------------------------------|

e13----------13---------13--------13-----------20b-20b-20b(22)x6------------|
b---13h15p13---13h15p13---13h15p13--13h15p13--------------------------------|
g---------------------------------------------------------------------------|
d---------------------------------------------------------------------------|
a---------------------------------------------------------------------------|
E---------------------------------------------------------------------------|
Tap to rate this tab
 
# A B C D E F G H I J K L M N O P Q R S T U V W X Y Z