Song name
# A B C D E F G H I J K L M N O P Q R S T U V W X Y Z

Saving Aimee - Level On Up tab

absolutely amazing band, great tune :)
these guys are going places!!
bit annoyed that there were no saving aimee tabs up :O so something had to e done about it
rate, correct (if need be) and enjoy

Tabber: Thysieee (thysmania2007@hotmail.co.uk - feedback :])


Title:  Level On Up
Artist: Saving Aimee


intro and verse

guitar 2

verse (a)

e|-----------------------------------|----------------------------------|
B|-----------------------------------|----------------------------------|
G|-------------------5-5-5-----------|-------------------5-5-5----------|
D|---5-5-5---5-5-5---5-5-5---5-5-5---|---5-5-5---5-5-5---5-5-5---5-5-5--|
A|---5-5-5---5-5-5---3-3-3---5-5-5---|---5-5-5---5-5-5---3-3-3---5-5-5--|
E|---3-3-3---3-3-3-----------3-3-3---|---3-3-3---3-3-3-----------3-3-3--|

       (b) "Love, Love, Love....."
e|---------------------------------------------------------------------------------------|
B|---------------------------------------------------------------------------------------|
G|---7~~~~--5~~~~------------------------------------------------------------------------|
D|---7~~~~--5~~~~--5~~~~~~~~-------------------------------------------------------------|
A|---5~~~~--3~~~~--5~~~~~~~~-------------------------------------------------------------|
E|-----------------3~~~~~~~~-------------------------------------------------------------|

guitar 1

verse (a)

e|-----------------------------------|---------------------------------------------------|
B|---8-8-8---8-8-8---131313---8-8-8--|---8-8-8---8-8-8---131313---8-8-8------------------|
G|---7-7-7---7-7-7---121212---7-7-7--|---7-7-7---7-7-7---121212---7-7-7------------------|
D|---5-5-5---5-5-5---101010---5-5-5--|---5-5-5---5-5-5---101010---5-5-5------------------|
A|-----------------------------------|---------------------------------------------------|
E|-----------------------------------|---------------------------------------------------|

      (b) "Love, Love, Love....."
e|---------------------------------------------------------------------------------------|
B|---15~~~~--13~~~~--8~~~~~~~~-----------------------------------------------------------|
G|---14~~~~--12~~~~--7~~~~~~~~-----------------------------------------------------------|
D|---12~~~~--10~~~~--5~~~~~~~~-----------------------------------------------------------|
A|---------------------------------------------------------------------------------------|
E|---------------------------------------------------------------------------------------|

chorus
     "Hopes up, level on up....."
e|------------------------------------------|--------------------------------------------|
B|------------------------------------------|--------------------------------------------|
G|----------------------77777777--55555555--|---99999999--77777777--55555555-------------|
D|---55555555555555555--77777777--55555555--|---99999999--77777777--55555555--5555--7777-|
A|---55555555555555555--55555555--33333333--|---77777777--55555555--33333333--5555--7777-|
E|---33333333333333333----------------------|---------------------------------3333--5555-|

bridge(a)

guitar 2
     "I got you, i got you...."
e|---------------------------------------------------------------------------------------|
B|---------------------------------------------------------------------------------------|
G|--------------5~~~~~~---9~~~---7~~~---5~~~~~~------------------------------------------|
D|---5~~~~~~----5~~~~~~---9~~~---7~~~---5~~~~~~------------------------------------------|
A|---5~~~~~~----3~~~~~~---7~~~---5~~~---3~~~~~~------------------------------------------|
E|---3~~~~~~-----------------------------------------------------------------------------|

guitar 1
e|---------------------------------------------------------------------------------------|
B|---8~~~~~~----13~~~~~~--17~~~--15~~~-13------------------------------------------------|
G|---7~~~~~~----12~~~~~~--16~~~--14~~~-12------------------------------------------------|
D|---5~~~~~~----10~~~~~~--14~~~--12~~~-10------------------------------------------------|
A|---------------------------------------------------------------------------------------|
E|---------------------------------------------------------------------------------------|

bridge(b)

guitar 2
     "Letís, lets not be less....."
e|---------------------------------------------------------------------------------------|
B|---------------------------------------------------------------------------------------|
G|---------------------5-5-5-5-5-5-5-5---9-9-9-9-9-9-9-9---5~~~~~~-----------------------|
D|---5-5-5-5-5-5-5-5---5-5-5-5-5-5-5-5---9-9-9-9-9-9-9-9---5~~~~~~-----------------------|
A|---5-5-5-5-5-5-5-5---3-3-3-3-3-3-3-3---7-7-7-7-7-7-7-7---3~~~~~~-----------------------|
E|---3-3-3-3-3-3-3-3---------------------------------------------------------------------|

guitar 1
e|-------------------------------------------------------------------|
B|---8-8-8-8-8-8-8-8---1313131313131313--1717171717171717--13~~~~~~--|
G|---7-7-7-7-7-7-7-7---1212121212121212--1616161616161616--12~~~~~~--|
D|---5-5-5-5-5-5-5-5---1010101010101010--1414141414141414--10~~~~~~--|
A|-------------------------------------------------------------------|
E|-------------------------------------------------------------------|

outro

guitar 2
e|---------------------------------------------------------------------------------------|
B|---------------------------------------------------------------------------------------|
G|---------------------------------------------------------------------------------------|
D|---5-5-5---5-5-5---5-5-5-5-------------------------------------------------------------|
A|---5-5-5---5-5-5---5-5-5-5-------------------------------------------------------------|
E|---3-3-3---3-3-3---3-3-3-3-----(check song for rhythm)---------------------------------|

guitar 1
e|---------------------------------------------------------------------------------------|
B|---8-8-8---8-8-8---8-8-8-8-------------------------------------------------------------|
G|---7-7-7---7-7-7---7-7-7-7-------------------------------------------------------------|
D|---5-5-5---5-5-5---5-5-5-5-----(check song for rhythm)---------------------------------|
A|---------------------------------------------------------------------------------------|
E|---------------------------------------------------------------------------------------|







Lyrics

intro

verse (a)

I just figured you out
Quicker than you know yourself
Quicker than you know yourself

verse (a)

As I start from scratch tonight
To take you home and make you mine
Iíll just stay and do whatís right
Coz I trapped you with

verse (b)

Love love love love love

chorus

Hopes up
Level on up here baby
Never gonna let you hate me
Weíre caught up in what we all call
Love yeah
Iíve bin thinking lately
Thinking of my baby
Weíre caught up in what we all callÖ

verse (a)

I just figured you out
Faster than you know yourself
Faster than anyone else
YeahÖ

verse (a)

Desperate to come alive
Your eyes so bright they leave me blind
Iíll just stay and do whatís right
Coz I trapped you with

verse (b)

Love love love love love

bridge (a)

I got you, I got you, I got you
I didÖ

bridge (b)

Letís, lets not be less than we could ever be
Lets level up or down it just occurred to me
I canít find what I want in anyone I see

verse (a)

Love is on the up now
Hope is on the up now
Level on up now
Donít fall behind

chorus

Hopes up
Level on up here baby
Never gonna let you hate me
Weíre caught up in what we all call
Love yeah
Iíve bin thinking lately
Thinking of my baby
Weíre caught up in what we all callÖ

outro
Tap to rate this tab
 
# A B C D E F G H I J K L M N O P Q R S T U V W X Y Z