Song name
# A B C D E F G H I J K L M N O P Q R S T U V W X Y Z

Saving Aimee - Small Talk tab

Help us improve GuitareTab! Take a short survey!
-------------------------------------------------------------------------------
			     Small Talk - Saving Aimee
-------------------------------------------------------------------------------
Tabbed by: Alex
Email: alex_g_12@hotmail.com

Tuning:standard

these are only the solo-style parts

mini solo in chorus

e|--------------------------------------------------------------------------------------|
B|--------------------------------------------------------------------------------------|
G|------------------11(bend)---9--------------------------------------------------------|
D|-----------9--11---------------11-----------------------------------------------------|
A|----9--11-----------------------------------------------------------------------------|
E|--------------------------------------------------------------------------------------|

Solo
e|--------------------------------------------------------|
B|---12---(tremelo)--9--7--5----7-h-5--9-h-7-10-h-8---12--|
G|--------------------------------------------------------|
D|--------------------------------------------------------|
A|--------------------------------------------------------|
E|--------------------------------------------------------|

e|-----------4--7----------------------|
B|-----5-5-5-------5-5-5----9--7-7h-5--|
G|-------------------------------------|
D|-------------------------------------|
A|-------------------------------------|
E|-------------------------------------|

e|---------------------------------------------------------------------------------------|
B|-----5-5-5---7--9--5--5-7-9-5----------------------------------------------------------|
G|---------------------------------------------------------------------------------------|
D|---------------------------------------------------------------------------------------|
A|---------------------------------------------------------------------------------------|
E|---------------------------------------------------------------------------------------|
Tapping
e|-----------------------------------------------------|
B|--12--7--5--12--7--5--12--7--5--many-times-------17--|
G|-----------------------------------------------------|
D|-----------------------------------------------------|
A|-----------------------------------------------------|
E|-----------------------------------------------------|

e|-----------4--7----------------------|
B|-----5-5-5-------5-5-5----9--7-7h-5--|
G|-------------------------------------|
D|-------------------------------------|
A|-------------------------------------|
E|-------------------------------------|

e|---------------------------------------------------------------------------------------|
B|-----5-5-5---7--9--5--5-7-9-5----------------------------------------------------------|
G|---------------------------------------------------------------------------------------|
D|---------------------------------------------------------------------------------------|
A|---------------------------------------------------------------------------------------|
E|---------------------------------------------------------------------------------------|
End bit (many times)
e|----------------------------------------------|
B|------------------------------------------17--|
G|----13--12h-13--15--12h-13---16---12h13-------|
D|----------------------------------------------|
A|----------------------------------------------|
E|----------------------------------------------|


| /  slide up
| \  slide down
| h  hammer-on
| p  pull-off
| ~  vibrato
| +  harmonic
| x  Mute note
===============================================================================
Related for Small Talk tab