Song name
# A B C D E F G H I J K L M N O P Q R S T U V W X Y Z

Savoy Brown - Taste And Try Before You Buy tab

Taste And Try, Before You Buy

by

Savoy Brown

This is a pretty basic, repetitive yet awesome blues song that's easy enough to play on guitar.

Intro
|-----|
|-----|
|-6-7-|
|-5-6-|
|-6-7-|
|-----|

|----------------------------|
|----------------------------|
|-6-7-9-8-7------------------|
|-5-6-------9-8-7--5---5-7-5-|
|-6-7----------------7-------|
|----------------------------|

|----------------------------|
|----------------------------|
|-6-7-9-8-7------------------|
|-5-6-------9-8-7--5---5-7-5-|
|-6-7----------------7-------|
|----------------------------|

Verse 1 (“My mama told me…”)
|-----------------------------------------|
|-------8---------8---------8---------8---|
|-6-7---7---6-7---7---6-7---7---6-7---7---|
|-5-6---6---5-6---6---5-6---6---5-6---6---|
|-6-7---7---6-7---7---6-7---7---6-7---7---|
|-----------------------------------------|

|------------------------------------------|
|-------8---------8------------------------|
|-6-7---7---6-7---7---6-7------------------|
|-5-6---6---5-6---6---5-6------------------|
|-6-7---7---6-7---7---6-7------------5-6-7-|
|----------------------------7-6-5---------|

|------------------------|
|------------------------|
|-9-8-7------------------|
|-------9-8-7--5---5-7-5-|
|----------------7-------|
|------------------------|

Verse 2 (“The army man says…”)
|-----------------------------------------|
|-------8---------8---------8---------8---|
|-6-7---7---6-7---7---6-7---7---6-7---7---|
|-5-6---6---5-6---6---5-6---6---5-6---6---|
|-6-7---7---6-7---7---6-7---7---6-7---7---|
|-----------------------------------------|

|------------------------------------------|
|-------8---------8------------------------|
|-6-7---7---6-7---7---6-7------------------|
|-5-6---6---5-6---6---5-6------------------|
|-6-7---7---6-7---7---6-7------------5-6-7-|
|----------------------------7-6-5---------|

|------------------------|
|------------------------|
|-9-8-7------------------|
|-------9-8-7--5---5-7-5-|
|----------------7-------|
|------------------------|

Verse 3 (“My woman looks at me…”)
|-----------------------------------------|
|-------8---------8---------8---------8---|
|-6-7---7---6-7---7---6-7---7---6-7---7---|
|-5-6---6---5-6---6---5-6---6---5-6---6---|
|-6-7---7---6-7---7---6-7---7---6-7---7---|
|-----------------------------------------|

|------------------------------------------|
|-------8---------8------------------------|
|-6-7---7---6-7---7---6-7------------------|
|-5-6---6---5-6---6---5-6------------------|
|-6-7---7---6-7---7---6-7------------5-6-7-|
|----------------------------7-6-5---------|

|------------------------|
|------------------------|
|-9-8-7------------------|
|-------9-8-7--5---5-7-5-|
|----------------7-------|
|------------------------|

The guitar solo is in the key of E and runs like any other blues solo, then  rest from 
then on is essentially the same thing. Any questions, e-mail me at 
steveman1236@gmail.com. Also, check out more songs by Savoy Brown. Great band!
Tap to rate this tab
 
# A B C D E F G H I J K L M N O P Q R S T U V W X Y Z