Song name
# A B C D E F G H I J K L M N O P Q R S T U V W X Y Z

Savoy Brown - Flood In Houston tab

Savoy Brown:
Flood in Houston

OnE oF tHe CoOlEsT bLuEs TuNeS eVeR!1!1!1   All I've tabbed is the beggining but here
you go.  / = slide up     \ = slide down      b = bend and the number after the be
isn't to be played, just to tell you how hight to bend it.

HaVe FuN!1!1!1


-----------8--10b11-----------------8--10pre-bend11--8--/13--11--8-----------|
---/8--10------------10-----/8--10----------------------------------8--------|
-----------------------------------------------------------------------10b11-|
-----------------------------------------------------------------------------|
-----------------------------------------------------------------------------|
-----------------------------------------------------------------------------|


----------------------------------------------------------------------------|
--8--------------11---------------------------------------------------------|
-----8------/12------\10--10--8--10--8------8-------------------------------|
--------10------------------------------10-----10--10------------8----------|
-------------------------------------------------------8--9--10-----10------|
----------------------------------------------------------------------------|


---------------------------8/--10\--8/--8--8---------------------------------|
--10-----9-----8-----8-----8/--10\--8/--8--8---------------------------------|
--9------8-----7-----7-----8/--10\--8/--8--8--10b13--10--8--10--8--10--8-----|
--10-----9-----8-----8----------------------------------------------------10-|
-----------------------------------------------------------------------------|
-----------------------------------------------------------------------------|


------------------------------------------8/--10\--8/--8--8-----------------|
------------------11--13--11------11--11--8/--10\--8/--8--8--11b13----------|
--8----------/12--------------12----------8/--10\--8/--8--8-----------------|
-----10--10-----------------------------------------------------------------|
----------------------------------------------------------------------------|
----------------------------------------------------------------------------|

That's all I know for now so there you go.
Tap to rate this tab
# A B C D E F G H I J K L M N O P Q R S T U V W X Y Z