Song name
# A B C D E F G H I J K L M N O P Q R S T U V W X Y Z

Saw Doctors - I Hope Youll Meet Again tab

Saw Doctors - I Hope You'll Meet Again (solo)

actually played on a flute.  


e--12--------------------------------------------|
B-----15-12------------------------------12------|
G-----------12----14--12----14--12-12-14-----14--|
D------------------------------------------------|
A------------------------------------------------|
E------------------------------------------------|

e----------------------------12----12------------|
B--12--12-13-15-12--12-13-15-----------15--12--15|
G------------------------------------------------|
D------------------------------------------------|
A------------------------------------------------|
E------------------------------------------------|

e--12---12-14-15-14--12--------------------------|
B------------------------15--13---13-15-13-------|
G------------------------------------------14----|
D------------------------------------------------|
A------------------------------------------------|
E------------------------------------------------|

e--------------------------------------------------------|
B--12-13--13-15-13-12-------12---------------------------|
G---------------------14-12-----------11-12-11---11-12-14|
D------------------------------14--14--------------------|
A--------------------------------------------------------|
E--------------------------------------------------------|
Tap to rate this tab
 
# A B C D E F G H I J K L M N O P Q R S T U V W X Y Z