Guitaretab - guitar tabs
Song name
# A B C D E F G H I J K L M N O P Q R S T U V W X Y Z

Saw Doctors - Irish Post tab

Saw Doctors - Irish Post

Chords:(Guitar)
A=x02220
E=022100
D=xx0232
B=x24442

(Mandolin)
A=2256
E=1224
D=2002
B=4467

Intro Guitar:
e----------------------------------|
B------4-5---5---7--5--------------|
G--6-7------------------6-------4--|
D---------------------------7------|
A----------------------------------|
E----------------------------------|

e----------------------------------|
B----------------------------------|
G---------4-4---6--4---------------|
D--6-7-8--------------7------4-7---|
A----------------------------------|
E----------------------------------|

Intro Mandolin:
E========0===0==2==0================|
A==4=5=6==============4==0==2=======|
D===================================|
G===================================|

E===================================|
A===0=1=2===2==4==2==0=====0========|
D=6=====================4===========|
G===================================|
[ Tab from: http://www.guitaretab.com/s/saw-doctors/102140.html ]
            A                                           E
I wrote her name and address on the back of a cigarette pack
  E                                        A
I didnít know then that Iíd never be goiní back
    A                                          E
the ferry was leaving when we pulled up to the quay
        E                                          A
When we reached Hollyhead I was as sick as I could be
         D                            A
I didnít choose this way they made me go
        D                                       B    E
I was a week on the job and I wanted to go back ho-O-Ome
       A                                          E
What I wouldnít do for a glimpse of the Christmas tree
E                               A
hearIN' all your voices calliní me
     A                                        E
if I go back home again Iíll just be hanging 'round
E                                       A
Maybe next year if my ship doesnít run aground
            D                                                 A
I should've listened to my brother Moran when he said I was a fool, 
         D                                  B    E
but it's too late now and I didnít make the ru-U-Ules
    A                         E
Oh, God, please have mercy on me
    E                          A
Iím all alone in another man's city
A                                          E
Iím not askiní for much just wanta go back home
    E                             E
see Mam and Dad and the boys, oh, God!

Solo:

e-------------------|----------------------|
B---------8-5-------|----------------------|
G-7-7-7-7-----7-4---|-----------5-4--------|
D-----------------7-|-5h7-7-7-7-----7-4-5--|  X 2
A-------------------|----------------------|
E-------------------|----------------------|

e-------------------------|--------------------------|
B-------------------------|--------------------------|
G-------------------------|--------------------------|
D-------------------------|--------------------------|
A-0-1-2-4-4-4-4-5-4-2-0-2-|---0-1-2-2-2-2-5-4-2-0-4--|
E-------------------------|-4------------------------|

(Play Intro on Mandolin at same time as:)
e--------------------------|-------------------------|
B--------------------------|-------------------------|
G--------------------------|-------------------------|
D-------------4------------|-------------------------|
A-4-5-6-7--7----7--4--0-2--|---0-1-2--2--4-2-0-----0-|
E--------------------------|-4------------------2----|


(SAME)

I should've listened to my brother Moran when he said
I was a fool, but it's too late now and I didnít make the rules
Oh, God, please have mercy on me
Iím all alone in another man's city
Iím not askiní for much just wanta go back home
See Mam and Dad and the boys, oh, God!
Just see Mam and Dad and the boys, oh, God!
Related for Irish Post tab