Song name
# A B C D E F G H I J K L M N O P Q R S T U V W X Y Z

Saw Doctors - To Win Just Once tab

Saw Doctors - To Win Just Once

Standard Tuning
Capo 2
Chords:
A=x02220
E=022100
D=xx0232

Intro:

  A          E         D         A
e------5---|-----5---|-----5---|-----5---|
B--------5-|-------5-|-------5-|-------5-|
G----------|---------|---2-----|---------|
D---2------|---------|-0-------|---2-----|
A-0--------|---2-----|---------|-0-------|
E----------|-0-------|---------|---------|

  A          A         D          E
e------5---|-----5---|-----5---|-(0)--------|
B--------5-|-------5-|-------5-|-(0)--------|
G----------|---------|---2-----|-(1)--------|
D---2------|---2-----|-0-------|-(2)--------|
A-0--------|-0-------|---------|-(2)--------|
E----------|---------|---------|--0---------|

vERSE 1:
   A        E          D    A
To win just once would be enough
    A                    D        E
For those who’ve lost in life and love
    A            E          D         A
For those who’ve lost their guile and nerve
      A                D         E
Their innocence, their drive and verve
    A         E            D        A
For those who feel they’ve been mistreated
   A     E     D         A
Discriminated, robbed or cheated
   A         E    D     A
To claim one victory inspired
   D                E
To win just once is their desire

Chorus:
   A   E    D
To Win just once
   A   E    D 
To Win just once
   A   E    D
To Win just once
D             A       (FILL 1 BELOW)
That would be enough


VERSE 2(SAME CHORDS):

To win just once against the odds
And once be smiled on by the Gods
To race with speed along the track
Break the tape and not look back
To never have considered losing
As if to win is by your choosing
Bare you soul for all to find
An honest heart and an open mind

REPEAT CHORUS 

FILL 2 (BELOW)

MID 8:
   A           D        E         A
So come all ye fulltime smalltown heroes
A     D        E      A
Cast away your inbred fears of
A        D        E       A
Standing out from all the rest
    A              D    E
The cynics and the pessimists
    A      E       D      A
The self-indulgent almost rich
    A       E       D      A
The blatant hurlers on the ditch
A       E       D       A
Time is passing so come on
    A                  D       E
And face the ball, the game is on


CHORUS X 2

FILL 3 (BELOW)


FILL 1:
e--------|---------------------------|--------------------------|
B--------|--------------------2------|-----2------------2-3-2---|
G------1-|-2--2-2-1-2-4-1-2-4---4-2--|-2-4---4-2--2-2-4-------4-|
D--2-4---|---------------------------|--------------------------|
A--------|---------------------------|--------------------------|
E--------|---------------------------|--------------------------|


FILL 2:
e--------|---------------------------|--------------------------|
B--------|--------------------2------|-----2------------2-3-2---|
G------1-|-2--2-2-1-2-4-1-2-4---4-2--|-2-4---4-2--2-2-4-------4-|
D--2-4---|---------------------------|--------------------------|
A--------|---------------------------|--------------------------|
E--------|---------------------------|--------------------------|

e---------------------0-----|------0-------------0-2---0--|
B---2-2-2---2-3---2-3---3-2-|--2-3---3-2---2-2-3-----3----|
G-4-------4-----4-----------|-----------------------------|
D---------------------------|-----------------------------|
A---------------------------|-----------------------------|
E---------------------------|-----------------------------|

FILL 3
e--------|---------------------------|--------------------------|
B--------|--------------------2------|-----2------------2-3-2---|
G------1-|-2--2-2-1-2-4-1-2-4---4-2--|-2-4---4-2--2-2-4-------4-|
D--2-4---|---------------------------|--------------------------|
A--------|---------------------------|--------------------------|
E--------|---------------------------|--------------------------|

e---------------------0-----|------0-2-0-------0-2-0--------0--|
B---2-2-2---2-3---2-3---3-2-|--2-3-------3-2-3-------3-2----2--|
G-4-------4-----4-----------|----------------------------2--2--|
D---------------------------|-------------------------------2--|
A---------------------------|-------------------------------0--|
E---------------------------|-------------------------------X--|
Tap to rate this tab
# A B C D E F G H I J K L M N O P Q R S T U V W X Y Z