Song name
# A B C D E F G H I J K L M N O P Q R S T U V W X Y Z

Saw Doctors - Pied Piper tab

Saw Docors - Pied Piper

Chords:(GUITAR)
A=x02220
D=xx0232
E=022100

(MANDOLIN)
A=2256
D=2002
E=1224

Intro:

A (strum fast)

Verse 1:
A
Well it seems when he came over
            D
Things were fairly looking up
            A
Played full-forward for Mountbellow
          E
When they won the county cup
      A
Young Barret's gone to Boston
      D
So he has to play in goal
         A
The pied piper's come to Ireland
         E             A
And he's living on the dole

Verse 2(same chords)

You can stroll through Cong or Ballinrobe
You can walk the streets of Tuam
Thumb out as far as Headford
On returning pass through Shrule
You won't see many young ones
No matter where you roam
The pied piper's come to Ireland
And he's living on the dole

Chorus:
         D
The pied piper's come to Ireland
         A  A   A  A   A          (strum on each syllable)
And he's living on the dole
A
Played in Spiddal with the Waterboys
    E  E     E        E
now he loves rock and roll

E

Verse 3(same Chords)

Now there's just a pile of rubble
Where the workers used to be
Just a stone's throw from the banks
Through which the ould Clare river flows
When the people hear his haunting tune
They pack and leave their homes
The fear of revolution
The pied piper gets the dole

chorus

solo:(See Below)

Verse 4(as verse 1)

I hear they're raising money
Abroad in New York town
It's not for guns or bombs this time
But to turn the tables round
One last job for the piper
And they'll pay one great amount
To drive them all into the sea
That gang in Leinster House

Chorus (repeat last line 3 times)

end



solo: (Guitar)


e-----5-5-5-5-9-7-5-5-----------|----5-5-5-5-9-7-5-5-7-9-7-5-4-|
B-5-7-----------------7-7-7-5-7-|5-7---------------------------|
G-------------------------------|------------------------------|
D-------------------------------|------------------------------|
A-------------------------------|------------------------------|
E-------------------------------|------------------------------|


e-----5-5-5-5-9-7-5-5-----------|----5-5-5-5-9-7-5-5-7-7-9-7-5-|
B-5-7-----------------7-7-7-5-7-|5-7---------------------------|
G-------------------------------|------------------------------|
D-------------------------------|------------------------------|
A-------------------------------|------------------------------|
E-------------------------------|------------------------------|

e-5-7-9-10---14-17---14-12--14-12-10-9-|-7-9---10-12-10-9-17-16-14-12--16-14-12--16-14-12-10-12|
B--------------------------------------|-------------------------------------------------------|
G--------------------------------------|-------------------------------------------------------|
D--------------------------------------|-------------------------------------------------------|
A--------------------------------------|-------------------------------------------------------|
E--------------------------------------|-------------------------------------------------------|


Mandolin:

E================================|================================|
A=====0=0=0=0=4=2=0=0============|=====0=0=0=0=4=2=0=0=2=4=2=0====|
D=2=4=================4=4=4=2=4==|=2=4=========================6==|
G================================|================================|

E================================|================================|
A=====0=0=0=0=4=2=0=0============|=====0=0=0=0=4=2=0=0=2=2=4=2=0==|
D=2=4=================4=4=4=2=4==|=2=4============================|
G================================|================================|

E===========2=5===2=0=2=0=====|===========0=====5==4=2=0===4=2=0===4=2=0===0===|
A=0=2=4=5=================5=4=|=2=4=4=4=5===5=4==========================5=====|
D=============================|================================================|
G=============================|================================================|
Tap to rate this tab
# A B C D E F G H I J K L M N O P Q R S T U V W X Y Z