Guitaretab - guitar tabs
Song name
# A B C D E F G H I J K L M N O P Q R S T U V W X Y Z

Saw Doctors - N17 tab

This is my first tab. I think it's right!
[ Tab from: http://www.guitaretab.com/s/saw-doctors/16862.html ]
                                                     
E|-----3---5---6---7---7----------------5---7---7--------------|
B|------------------------3----5---5----------------3----5---5-|
G|---4---5---6---7---7---4---5---5----5----7--7---4----5---5---|
D|-------------------------------------------------------------|
A|-------------------------------------------------------------|
E|-------------------------------------------------------------| 
  
                                                     
                                                                            

Play this part twice before the verse. 

 
E|---5---7---7------------|
B|---------------3--5---5-|
G|-5-------7---4------5---|
D|------------------------|                                             
A|------------------------|
E|------------------------|
Related for N17 tab
Advertisement will be closed in 10 seconds