Song name
# A B C D E F G H I J K L M N O P Q R S T U V W X Y Z

Sawyer Brown - Mission Temple Fireworks Stand tab

Song: Mission Temple Fireworks Stand
Arist: Sawyer Brown, feat. Robert Randolph

Guitar solo: (comes in at 1:40)


e|----------------|---/19---22-19--------------------|
a|----------------|----------------22-19-------------|
g|--------14-16---|------------------------21p19-----|
d|---/16----------|------------------------------21--|
b|----------------|----------------------------------|
E|----------------|----------------------------------|



|----------------------------|-------------------|
|-----19---------------------|--------------19---|
|--21----21p19---------------|-----/19--21-------|
|--------------21p19-21------|-------------------|
|----------------------------|-------------------|
|----------------------------|-------------------|


|--/19---22-19------------------------------------------------|
|---------------22p19------------22b-22b-22b-21b-19b-17b--17--|
|-----------------------21b-21--------------------------------|
|-------------------------------------------------------------|
|-------------------------------------------------------------|
|-------------------------------------------------------------|


     (bend 15 a full step, picking quickly, then release)
|----------------------------------------------------|
|---15br-----15--17--15------------------------------|
|-------16---------------16----14--------------------|
|----------------------------------16----14p12-------|
|----------------------------------------------14----|
|----------------------------------------------------|



Tabbed by Tim (dufiant@hotmail.com)
Tap to rate this tab
 
# A B C D E F G H I J K L M N O P Q R S T U V W X Y Z