Song name
# A B C D E F G H I J K L M N O P Q R S T U V W X Y Z

Saxon Shore - Cader Idris tab

This is my first posted tab.  If there are any errors, please let me know.  I was just 
disappointed in not seeing any Saxon Shore tabs or tabs of other ambient rock bands, so I 
went ahead and started tabbing some out.

Guitar One:
0:16
-----------------------|
9--7--5--4--2--0--2--4-|
-----------------------|
-----------------------|
11-9--7--6--4--2--4--6-|
-----------------------|repeats]

0:49
------------------|
--------------9---|
11-9-8-9-11-8---8-|
------------------|
------------------|
------------------|repeats]

1:15
--------------------------|
9--7--5--4--2--0--2--4-9--|
--------------------------|
--------------------------|
11-9--7--6--4--2--4--6-11-|
--------------------------|


Guitar Two:
0:16
------------------|
------------------|
------------------|
--6-9-6---7-6-----|
7-------7-----9-7-|
------------------|repeats]
Tap to rate this tab
 
# A B C D E F G H I J K L M N O P Q R S T U V W X Y Z