Song name
# A B C D E F G H I J K L M N O P Q R S T U V W X Y Z

Saxon - Song For Emma tab

-------------------------------------------------------------------------------
			     Song For Emma - Saxon
-------------------------------------------------------------------------------
Band: Saxon
Song: Song for Emma
Album: Destiny

Tabbed by: deathx88
Email: deathx88@yahoo.com

Tuning: Standard


Riff 1 (intro)
e|--------------------------------------------------------------------------|x2
B|--------------------------------------------------------------------------|
G|-----------0-----------------0-----------------0-----------------0--------|
D|--------4-----4-----------4-----4-----------4-----4-----------3-----4-----|
A|-----2-----------2-----2-----------2-----3-----------3-----4-----------3--|
E|--0-----------------0-----------------0-----------------0-----------------|

e|-----------------------------------------------------------0---------|
B|-----------0-----------------0-----------------0-----------0---------|
G|--------0-----0-----------0-----0-----------0-----0--------0---------|
D|-----2-----------2-----2-----------2-----4-----------4-----4---------|
A|--3-----------------3-----------------5--------------------5---------|
E|---------------------------------------------------------------------|


Riff 2 (guitar 1)
e|-----------------------------------------------------------------------------|
B|-----------------------------------------------------------------------------|
G|-----------------------------------------------------------------------------|
D|--9----5----7------9----5----7------9----5----7------9----5----7------5--5---|
A|--7----3----5------7----3----5------7----3----5------7----3----5------3--3---|
E|-----------------------------------------------------------------------------|


Riff 2 (guitar 2)
e|----------------------------------------------------------------|
B|-----------------------7--8--7-8-7------------------------------|
G|--------------------9--------------9-----9----------------------|
D|--9----5----7---/9--------------------9-------9---7--9~---------|
A|--7----3----5---------------------------------------------------|
E|----------------------------------------------------------------|

e|---------------------------------7---8-------------------------------------|
B|---------7--8--7-8-7-------10b----------10~-----------7--8--7-8-7----------|
G|------9--------------9-----------------------------9--------------9--------|
D|--/9--------------------9----------------------/9--------------------9-----|
A|---------------------------------------------------------------------------|
E|---------------------------------------------------------------------------|

e|---------------------------------------------------|
B|---------------------------------------------------|
G|--9-------------------------7--9-------------------|
D|-------9---7--9~-----/7--9--------9--9~------------|
A|---------------------------------------------------|
E|---------------------------------------------------|


Riff 3a (verse 1) x2
e|--------------------------------------------------|
B|--------------------------------------------------|  
G|--------0--------0--------------0--------0--------|  
D|-----4--------4--------4-----4--------4--------4--|  
A|--5--------5--------5-----5--------5--------5-----|  
E|--------------------------------------------------|  
						       
e|--------------------------------------------------|  
B|--------------------------------------------------|  
G|--------0--------0--------------0--------0--------|  
D|-----4--------4--------4-----4--------4--------4--|  
A|--3--------3--------3-----3--------3--------3-----|  
E|--------------------------------------------------|


Riff 3b (verse 1 cont.)
e|--------------------------------------------------|
B|--------------------------------------------------|
G|--------0--------0--------------0--------0--------|
D|-----4--------4--------4-----4--------4--------4--|
A|--2--------2--------2-----2--------2--------2-----|
E|--------------------------------------------------|

e|--------------------------------------------------|
B|--------------------------------------------------|
G|--------0--------0--------------0--------0--------|
D|-----4--------4--------4-----4--------4--------4--|
A|--3--------3--------3-----5--------5--------5-----|
E|--------------------------------------------------|


Riff 3b (guitar 2)
e|-----------------------------------|
B|-----------------------------------|
G|--4--------------5--------7--------|
D|--4--------------5--------7--------|
A|--2--------------3--------5--------|
E|-----------------------------------|


Riff 3b (guitar 3)
e|-----------------------------------------------------|
B|----------------------------------7--8--7-8-7--------|
G|-------------------------------9--------------9------|
D|---------------------------/9--------------------9---|
A|-----------------------------------------------------|
E|-----------------------------------------------------|


Riff 2 (chorus guitar 1)
e|-----------------------------------------------------------------------------|
B|-----------------------------------------------------------------------------|
G|-----------------------------------------------------------------------------|
D|--9----5----7------9----5----7------9----5----7------9----5----7------5--5---|
A|--7----3----5------7----3----5------7----3----5------7----3----5------3--3---|
E|-----------------------------------------------------------------------------|


Riff 2 (guitar 2)
e|---------------------------------------------------------7----8-------------|
B|---------------------------------------------------10b-----------10---8--8--|
G|----------------------------------------------------------------------------|
D|----------------------------------------------------------------------------|
A|----------------------------------------------------------------------------|
E|----------------------------------------------------------------------------|


Riff 3a (verse 2) x2
e|--------------------------------------------------|
B|--------------------------------------------------|  
G|--------0--------0--------------0--------0--------|  
D|-----4--------4--------4-----4--------4--------4--|  
A|--5--------5--------5-----5--------5--------5-----|  
E|--------------------------------------------------|  
						       
e|--------------------------------------------------|  
B|--------------------------------------------------|  
G|--------0--------0--------------0--------0--------|  
D|-----4--------4--------4-----4--------4--------4--|  
A|--3--------3--------3-----3--------3--------3-----|  
E|--------------------------------------------------|


Riff 3b (verse 2 cont.)
e|--------------------------------------------------|
B|--------------------------------------------------|
G|--------0--------0--------------0--------0--------|
D|-----4--------4--------4-----4--------4--------4--|
A|--2--------2--------2-----2--------2--------2-----|
E|--------------------------------------------------|

e|--------------------------------------------------|
B|--------------------------------------------------|
G|--------0--------0--------------0--------0--------|
D|-----4--------4--------4-----4--------4--------4--|
A|--3--------3--------3-----5--------5--------5-----|
E|--------------------------------------------------|


Riff 3b (guitar 2)
e|-----------------------------------|
B|-----------------------------------|
G|--4--------------5--------7--------|
D|--4--------------5--------7--------|
A|--2--------------3--------5--------|
E|-----------------------------------|


Riff 3b (guitar 3)
e|-----------------------------------------------------|
B|----------------------------------7--8--7-8-7--------|
G|-------------------------------9--------------9------|
D|---------------------------/9--------------------9---|
A|-----------------------------------------------------|
E|-----------------------------------------------------|


Riff 2 (chorus guitar 1)
e|-----------------------------------------------------------------------------|
B|-----------------------------------------------------------------------------|
G|-----------------------------------------------------------------------------|
D|--9----5----7------9----5----7------9----5----7------9----5----7------5--5---|
A|--7----3----5------7----3----5------7----3----5------7----3----5------3--3---|
E|-----------------------------------------------------------------------------|


Riff 2 (guitar 2)
e|---------------------------------------------------------7----8-------------|
B|---------------------------------------------------10b-----------10---8--8--|
G|----------------------------------------------------------------------------|
D|----------------------------------------------------------------------------|
A|----------------------------------------------------------------------------|
E|----------------------------------------------------------------------------|


Riff 4 (break) (guitar 1)
e|-----------------------------------------------------------------------------|
B|--4-----5-----4-------2-----4-----2-------4-----4-----4-------2-----4-----2--|
G|--4-----4-----4-------2-----2-----2-------4-----4-----4-------2-----2-----2--|
D|--4-----4-----4-------2-----2-----2-------4-----4-----4-------2-----2-----2--|
A|-----------------------------------------------------------------------------|
E|-----------------------------------------------------------------------------|


Riff 4 (break) (guitar 2) x2
e|-----------------------------------------------------|
B|--5--4-----5--4------5--4-----5--4-----5--4----------|
G|--------4--------4---------4--------4--------4~~-----|
D|-----------------------------------------------------|
A|-----------------------------------------------------|
E|-----------------------------------------------------|

e|-----------------------------------------------------|
B|--4--2-----4--2------4--2-----4--2-----4--2----------|
G|--------2--------2---------2--------2--------2~~-----|
D|-----------------------------------------------------|
A|-----------------------------------------------------|
E|-----------------------------------------------------|


Riff 2 (rhythm for solo)
e|--------------------------------------------------------------------------|
B|--------------------------------------------------------------------------|
G|--------------------------------------------------------------------------|
D|--9----5----7------9----5----7------9----5----7------9----5----7----------|
A|--7----3----5------7----3----5------7----3----5------7----3----5----------|
E|--------------------------------------------------------------------------|

e|--------------------------|
B|--------------------------|
G|--------------------------|
D|-----7--------------------|
A|--5--5--5--5--5--5--5--5--|
E|--------------------------|


Solo
e|--------/12------------------------------------------------------|
B|--15b-------12-15-12---------------------------------------------|
G|---------------------14br-14-12-14-12-11-12~---12--11-12-9~------|
D|-----------------------------------------------------------------|
A|-----------------------------------------------------------------|
E|-----------------------------------------------------------------|

e|----------------------------------------------12--------|
B|------------------------------------------/12----12-15--|
G|--11\9/11-9\7/9-7\6/7-9\7-6\4~--------------------------|
D|--------------------------------------------------------|
A|--------------------------------------------------------|
E|--------------------------------------------------------|

e|--12-14-15-17~-15-14-17~------15---14b--14~-----------------12------|
B|-----------------------------------------------------12--15----12---|
G|--------------------------------------------------------------------|
D|--------------------------------------------------------------------|
A|--------------------------------------------------------------------|
E|--------------------------------------------------------------------|

e|----------------------------------------------------------|
B|--15-----------------10-----------------------------------|
G|-----14pr------11-12----11--------7------------7----------|
D|---------------------------12----------9-7\5/7----7-5-----|
A|----------------------------------------------------------|
E|----------------------------------------------------------|


Riff 5a (bridge) x2
e|--------------------------------------------------|
B|--------------------------------------------------|
G|--------------------------------------------------|
D|--5--------5--------5--------5--------5-----5-----|
A|--3--3--3--3--3--3--3--3--3--3--3--3--3--3--3--3--|
E|--------------------------------------------------|

e|--------------------------------------------------|
B|--------------------------------------------------|
G|--------------------------------------------------|
D|--7--------7--------7--------7--------7-----7-----|
A|--5--5--5--5--5--5--5--5--5--5--5--5--5--5--5--5--|
E|--------------------------------------------------|


Riff 5b (bridge cont.) guitar 1
e|--------------------------------------------------| x2
B|--------------------------------------------------|
G|--------------------------------------------------|
D|--4--------4--------4--------4--------4-----4-----|
A|--2--2--2--2--2--2--2--2--2--2--2--2--2--2--2--2--|
E|--------------------------------------------------|

e|--------------------------------------------------|
B|--------------------------------------------------|
G|--------------------------------------------------|
D|--5--------5--------5-----7--------7--------7-----|
A|--3--3--3--3--3--3--3--3--5--5--5--5--5--5--5--5--|
E|--------------------------------------------------|

(guitar 2)
e|--------------------------------------------------| x2
B|--------------------------------------------------|
G|--------------------------------------------------|
D|--4--------4--------4--------4--------4-----4-----|
A|--2--2--2--2--2--2--2--2--2--2--2--2--2--2--2--2--|
E|--------------------------------------------------|

e|-----------------------------------------------------|
B|----------------------------------7--8--7-8-7--------|
G|-------------------------------9--------------9------|
D|--5--------5--------5------/9--------------------9---|
A|--3--3--3--3--3--3--3--3-----------------------------|
E|-----------------------------------------------------|


Riff 2 (outro chorus guitar 1) 
e|-----------------------------------------------------------------------------|
B|-----------------------------------------------------------------------------|
G|-----------------------------------------------------------------------------|
D|--9----5----7------9----5----7------9----5----7------9----5----7------5------|
A|--7----3----5------7----3----5------7----3----5------7----3----5------3------|
E|-----------------------------------------------------------------------------|

e|-----------------------------------------------------------------------------|
B|-----------------------------------------------------------------------------|
G|-----------------------------------------------------------------------------|
D|--9----5----7------9----5----7------9----5----7------9----5----7------5--5---|
A|--7----3----5------7----3----5------7----3----5------7----3----5------3--3---|
E|-----------------------------------------------------------------------------|


Riff 2 (guitar 2)
e|--------7----8-------------------------------------------------------------|
B|--10b-----------10~-----10----8-7--------------7--8--7-8-7-----------------|
G|----------------------------------9~--------9--------------9-------9~------|
D|----------------------------------------/9--------------------9------------|
A|---------------------------------------------------------------------------|
E|---------------------------------------------------------------------------|

e|---------------------------------------------------------7----8-------------|
B|---------------------------------------------------10b-----------10---8--8--|
G|----------------------------------------------------------------------------|
D|----------------------------------------------------------------------------|
A|----------------------------------------------------------------------------|
E|----------------------------------------------------------------------------|


Outro (guitar 1)
e|--------------------------| x8
B|--------------------------|
G|--------0--------0--------|
D|-----4--------4--------4--|
A|--3--------3--------3-----|
E|--------------------------|

(guitar 2)
e|----------------------------------------------------------|
B|----------------------------------------------------------|
G|----------------------------------------------------------|
D|--5--5------------5--5------------5--5------------5--5----|
A|--3--3------------3--3------------3--3------------3--3----|
E|----------------------------------------------------------|


| /  slide up
| \  slide down
| h  hammer-on
| p  pull-off
| ~  vibrato
| +  harmonic
| x  Mute note
| br bend and release note
| pr prebend and release note
===============================================================================
Tap to rate this tab
 
# A B C D E F G H I J K L M N O P Q R S T U V W X Y Z