Song name
# A B C D E F G H I J K L M N O P Q R S T U V W X Y Z

Saxon - I Cant Wait Anymore tab

-------------------------------------------------------------------------------
			     I Can't Wait Anymore - Saxon
-------------------------------------------------------------------------------
Band: Saxon
Song: I Can't Wait Anymore
Album: Destiny

Tabbed by: deathx88
Email: deathx88@yahoo.com

Tuning: Standard


Riff 1
e|-----------0-------------------0-------------------0------|
B|--------0------0------------0------0------------0------0--|
G|-----2-------------2-----2-------------2-----2------------|
D|--4-------------------0-------------------2---------------|
A|----------------------------------------------------------|
E|----------------------------------------------------------|

e|--------0--------0-------|
B|-----0--------0----------|
G|--2--------1-------------|
D|--------------------2----|
A|-------------------------|
E|-------------------------|

e|-----------0-------------------0-------------------0------|
B|--------0------0------------0------0------------0------0--|
G|-----2-------------2-----2-------------2-----2------------|
D|--4-------------------0-------------------2---------------|
A|----------------------------------------------------------|
E|----------------------------------------------------------|


Riff 1 Solo
e|---------------------------------------------------------------------------|
B|--12br-12-10-----9---------9-10-----12br-12--------------------------------|
G|-------------------11------------------------------------------------------|
D|----------------------------------------------------7-----6----------------|
A|----------------------------------------------------------------7\---------|
E|---------------------------------------------------------------------------|

e|--------------------------------------------------|
B|--12br-12-10-----9---------9-10-----12br-12-------|
G|-------------------11-----------------------------|
D|--------------------------------------------------|
A|--------------------------------------------------|
E|--------------------------------------------------|

e|--------------------------------------|
B|--9----10-9-------7~---------7\-------|
G|---------------9----------------------|
D|--6----7--6-------4~---------4\-------|
A|---------------7----------------------|
E|--------------------------------------|


Riff 1 (harmonized guitar) 
e|---------------------------------------------------------------------------|
B|---------------------------------------------------------------------------|
G|----------------------------------------------------6-----4----------------|
D|----------------------------------------------------------------6\---------|
A|---------------------------------------------------------------------------|
E|---------------------------------------------------------------------------|

e|---------------------------------------------------------------------------|
B|---------------------------------------------------------------------------|
G|--9---7--6-------------------6------9---7----------------------------------|
D|---------------9--7-------9------------------------------------------------|
A|---------------------------------------------------------------------------|
E|---------------------------------------------------------------------------|


Riff 2 (verse 1)
e|--0-----------------0------------------0-----------| x3
B|-----0-----0-----------0-----0------------0--------|
G|--------2-----2-----------2-----2------------2-----|
D|-----------------2-----------------2------------2--|
A|---------------------------------------------------|
E|---------------------------------------------------|

e|--0--------------------------0---------------------|
B|-----0-----0--------0-----------0------0--------0--|
G|--------2-----2--------0-----------2------2--------|
D|-----------------2--------2------------------2-----|
A|---------------------------------------------------|
E|---------------------------------------------------|

e|--0-----------------0------------------0-----------| x3
B|-----0-----0-----------0-----0------------0--------|
G|--------2-----2-----------2-----2------------2-----|
D|-----------------2-----------------2------------2--|
A|---------------------------------------------------|
E|---------------------------------------------------|

e|--0--------0--------0--------0---------0-----------|
B|-----0--------0--------0--------0---------2--------|
G|--------2--------2--------2--------2---------2-----|
D|---------------------------------------------------|
A|---------------------------------------------------|
E|---------------------------------------------------|


Riff 2 (guitar 2) play during last bar of riff 2
e|-------------------------------------|
B|-------------------------------------|
G|-------------------------------------|
D|--7------------------------7----9----|
A|--5-----4-----2~-----------5----7----|
E|--------------------5~---------------|


Riff 3 (chorus)
e|----------------------------------------------------------------|
B|----------------------------------------------------------------|
G|--11------7------9-----6-----4------------11------7------9------|
D|--11------7------9-----7-----6----6\------11------7------9------|
A|--9-------5------7----------------7\------9-------5------7------|
E|----------------------------------------------------------------|


Riff 1 (play during chorus)
e|-----------0-------------------0-------------------0------|
B|--------0------0------------0------0------------0------0--|
G|-----2-------------2-----2-------------2-----2------------|
D|--4-------------------0-------------------2---------------|
A|----------------------------------------------------------|
E|----------------------------------------------------------|

e|--------0--------0-------|
B|-----0--------0----------|
G|--2--------1-------------|
D|--------------------2----|
A|-------------------------|
E|-------------------------|

e|-----------0-------------------0-------------------0------|
B|--------0------0------------0------0------------0------0--|
G|-----2-------------2-----2-------------2-----2------------|
D|--4-------------------0-------------------2---------------|
A|----------------------------------------------------------|
E|----------------------------------------------------------|


Fill
e|--------------------------------------| x2
B|--9----10-9-------7~---------7\-------|
G|---------------9----------------------|
D|--6----7--6-------4~---------4\-------|
A|---------------7----------------------|
E|--------------------------------------|


Riff 4 (Bridge)
e|---------0------------------0------------------0------------------0----------|
B|--0---0-------0----------0-----0------------0-------0----------0-----0-------|
G|--2----------------2--------------2-----2----------------2--------------2----|
D|--2----------------------------------2--2----------------------------------2-|
A|--0-------------------------------------4------------------------------------|
E|----------------------------------------2------------------------------------|


Riff 2 (verse 2)
e|--0-----------------0------------------0-----------| x3
B|-----0-----0-----------0-----0------------0--------|
G|--------2-----2-----------2-----2------------2-----|
D|-----------------2-----------------2------------2--|
A|---------------------------------------------------|
E|---------------------------------------------------|

e|--0--------------------------0---------------------|
B|-----0-----0--------0-----------0------0--------0--|
G|--------2-----2--------0-----------2------2--------|
D|-----------------2--------2------------------2-----|
A|---------------------------------------------------|
E|---------------------------------------------------|

e|--0-----------------0------------------0-----------| x3
B|-----0-----0-----------0-----0------------0--------|
G|--------2-----2-----------2-----2------------2-----|
D|-----------------2-----------------2------------2--|
A|---------------------------------------------------|
E|---------------------------------------------------|

e|--0--------0--------0--------0---------0-----------|
B|-----0--------0--------0--------0---------2--------|
G|--------2--------2--------2--------2---------2-----|
D|---------------------------------------------------|
A|---------------------------------------------------|
E|---------------------------------------------------|


Riff 2 (guitar 2) play during last bar of riff 2
e|-------------------------------------|
B|-------------------------------------|
G|-------------------------------------|
D|--7------------------------7----9----|
A|--5-----4-----2~-----------5----7----|
E|--------------------5~---------------|


Riff 3 (chorus)
e|----------------------------------------------------------------|
B|----------------------------------------------------------------|
G|--11------7------9-----6-----4------------11------7------9------|
D|--11------7------9-----7-----6----6\------11------7------9------|
A|--9-------5------7----------------7\------9-------5------7------|
E|----------------------------------------------------------------|


Riff 1 (play during chorus)
e|-----------0-------------------0-------------------0------|
B|--------0------0------------0------0------------0------0--|
G|-----2-------------2-----2-------------2-----2------------|
D|--4-------------------0-------------------2---------------|
A|----------------------------------------------------------|
E|----------------------------------------------------------|

e|--------0--------0-------|
B|-----0--------0----------|
G|--2--------1-------------|
D|--------------------2----|
A|-------------------------|
E|-------------------------|

e|-----------0-------------------0-------------------0------|
B|--------0------0------------0------0------------0------0--|
G|-----2-------------2-----2-------------2-----2------------|
D|--4-------------------0-------------------2---------------|
A|----------------------------------------------------------|
E|----------------------------------------------------------|


Fill
e|--------------------------------------| x2
B|--9----10-9-------7~---------7\-------|
G|---------------9----------------------|
D|--6----7--6-------4~---------4\-------|
A|---------------7----------------------|
E|--------------------------------------|


Riff 4 (Bridge)
e|---------0------------------0------------------0------------------0----------|
B|--0---0-------0----------0-----0------------0-------0----------0-----0-------|
G|--2----------------2--------------2-----2----------------2--------------2----|
D|--2----------------------------------2--2----------------------------------2-|
A|--0-------------------------------------4------------------------------------|
E|----------------------------------------2------------------------------------|


Riff 5 (rhythm for solo)
e|------------------------| x8
B|--5--------5------------|
G|--4--------6------------|
D|--6--------7------------|
A|-----0--0-------0--0----|
E|------------------------|

e|---------------------------------------------------------------------------|
B|--5--------7----------5--------7-------------------------------------------|
G|--6--------7----------6--------7-------------------------------------------|
D|-----0--0-------0--0-----0--0-------0--0-----------------------------------|
A|---------------------------------------------------------------------------|
E|---------------------------------------------------------------------------|

e|--------------------------------------------------------------|
B|--5--------5----------5--------5------------------------------|
G|--4--------6----------4--------6------------------5-----------|
D|--6--------7----------6--------7----------5-------5-----------|
A|-----0--0-------0--0-----0--0-------0--0--5-------3-----------|
E|--------------------------------------------------------------|


Solo
e|--17--17\----------------------------------7~-----------9~-----------------|
B|--20b------10--10\---------------------------------------------------------|
G|-----------12b-------7b-7-----7b------6/7---------9-7\6-------9-7\6--------|
D|---------------------------------------------------------------------------|
A|---------------------------------------------------------------------------|
E|---------------------------------------------------------------------------|

e|--12-9-12-9-12-9-12-7-12-7-12-5-12-5-12-4-12-4-----------------------------|
B|---------------------------------------------------------------------------|
G|-----------------------------------------------11-9-11-9-11-7-11-7-11-6----|
D|---------------------------------------------------------------------------|
A|---------------------------------------------------------------------------|
E|---------------------------------------------------------------------------|

e|-----------------------------5~----------9~-----9----9----9----9--------10-|
B|--------------------3-2----------------------------------------------------|
G|--11-6-11-4-11-2\-1-----4\2-------9-7\6----------------------------7-6\----|
D|---------------------------------------------------------------------------|
A|---------------------------------------------------------------------------|
E|---------------------------------------------------------------------------|

e|--9-------12-10-9-------15-14-------17-14-17-14~--\------------------------|
B|----12-10---------12-10-------17-15-----------------10-12------------------|
G|----------------------------------------------------------------11---------|
D|----------------------------------------------------------11-12------------|
A|---------------------------------------------------------------------------|
E|---------------------------------------------------------------------------|

e|-----------9-12-9-------9-12-9-------------9----------------22--19----19---|
B|--12b-------------12b-----------12b--12-10---10--------------------20----20|
G|------------------------------------------------9--------------------------|
D|--------------------------------------------------11\7---------------------|
A|---------------------------------------------------------------------------|
E|---------------------------------------------------------------------------|

e|---------------------------------------------------------------------------|
B|-----20-------20-------------13--------------------------------------------|
G|--19----19-------19-------12----12-----------------------------------------|
D|-----------21----------21----------14----14--------------------------------|
A|--------------------22----------------15----15----15-----------------------|
E|-----------------------------------------------17----17\-------------------|


Riff 2 (verse 3)
e|--0-----------------0------------------0-----------| x3
B|-----0-----0-----------0-----0------------0--------|
G|--------2-----2-----------2-----2------------2-----|
D|-----------------2-----------------2------------2--|
A|---------------------------------------------------|
E|---------------------------------------------------|

e|--0--------0--------0--------0---------0-----------|
B|-----0--------0--------0--------0---------2--------|
G|--------2--------2--------2--------2---------2-----|
D|---------------------------------------------------|
A|---------------------------------------------------|
E|---------------------------------------------------|


Riff 2 (guitar 2) play during last bar of riff 2
e|-------------------------------------|
B|-------------------------------------|
G|-------------------------------------|
D|--7------------------------7----9----|
A|--5-----4-----2~-----------5----7----|
E|--------------------5~---------------|


Riff 3 (chorus)
e|----------------------------------------------------------------|
B|----------------------------------------------------------------|
G|--11------7------9-----6-----4------------11------7------9------|
D|--11------7------9-----7-----6----6\------11------7------9------|
A|--9-------5------7----------------7\------9-------5------7------|
E|----------------------------------------------------------------|


Riff 1 (play during chorus)
e|-----------0-------------------0-------------------0------|
B|--------0------0------------0------0------------0------0--|
G|-----2-------------2-----2-------------2-----2------------|
D|--4-------------------0-------------------2---------------|
A|----------------------------------------------------------|
E|----------------------------------------------------------|

e|--------0--------0-------|
B|-----0--------0----------|
G|--2--------1-------------|
D|--------------------2----|
A|-------------------------|
E|-------------------------|

e|-----------0-------------------0-------------------0------|
B|--------0------0------------0------0------------0------0--|
G|-----2-------------2-----2-------------2-----2------------|
D|--4-------------------0-------------------2---------------|
A|----------------------------------------------------------|
E|----------------------------------------------------------|


Fill
e|--------------------------------------| x2
B|--9----10-9-------7~---------7\-------|
G|---------------9----------------------|
D|--6----7--6-------4~---------4\-------|
A|---------------7----------------------|
E|--------------------------------------|


Riff 4 (outro) play once then fade out
e|---------0------------------0------------------0------------------0----------|
B|--0---0-------0----------0-----0------------0-------0----------0-----0-------|
G|--2----------------2--------------2-----2----------------2--------------2----|
D|--2----------------------------------2--2----------------------------------2-|
A|--0-------------------------------------4------------------------------------|
E|----------------------------------------2------------------------------------|

e|---------0------------------0------------------0--------------|
B|--0---0-------0----------0-----0------------0-------0---------|
G|--2----------------2--------------2-----2----------------2----|
D|--2----------------------------------2--2---------------------|
A|--0-------------------------------------4---------------------|
E|----------------------------------------2---------------------|

e|--0--------0--------0--------0---------0-----------|
B|-----0--------0--------0--------0---------2--------|
G|--------2--------2--------2--------2---------2-----|
D|---------------------------------------------------|
A|---------------------------------------------------|
E|---------------------------------------------------|


guitar 2 (play during last bar of outro riff)
e|-------------------------------------|
B|-------------------------------------|
G|-------------------------------------|
D|--7------------------------7----9----|
A|--5-----4-----2~-----------5----7----|
E|--------------------5~---------------|



| /  slide up
| \  slide down
| h  hammer-on
| p  pull-off
| ~  vibrato
| +  harmonic
| x  Mute note
| br bend and release note
===============================================================================
Tap to rate this tab
 
# A B C D E F G H I J K L M N O P Q R S T U V W X Y Z